Guitaretab - guitar tabs
Song name
# A B C D E F G H I J K L M N O P Q R S T U V W X Y Z

Play Radio Play - Even Fairy Tale Characters Would Be Jealous tab

Highlighted       Show chord diagrams
              EVEN FAIRY TALE CHARACTERS WOULD BE JEALOUS
                      As recorded by PlayRadioPlay!
                   From the 2007 Album "FREQUENCY EP"

Words and Music by PlayRadioPlay!
Transcribed by Kotie Vanden Bosch

Chords:
    D        Bm7        G        Bm
e|--2--|   |--2--|   |--3--|   |--2--|
B|--3--|   |--3--|   |--3--|   |--3--|
G|--2--|   |--2--|   |--0--|   |--4--|
D|--0--|   |--4--|   |--0--|   |--4--|
A|-----|   |--2--|   |--2--|   |--2--|
E|-----|   |-----|   |--3--|   |-----|


Standard Tuning
140 BPM
4/4

Intro:
e|--------9-10-------10-9--------9-10-------10-9--|
B|-----10---------10----------10---------10-------|
G|------------------------------------------------|
D|--12---------12----------12---------12----------|
A|------------------------------------------------|
E|------------------------------------------------|

e|--------9-10-------10-9--------9-10-------10-9--|
B|-----10---------10----------10---------10-------|
G|--11---------11----------11---------11----------|
D|------------------------------------------------|
A|------------------------------------------------|
E|------------------------------------------------| X2

Verse:
D
17 and running up the stairs my baby bear
Bm7
7 lonely hours that Iíve been without a shower until
D
You and I meet in the bathroom with the water on
Bm7
Steaming up the room with little but a towel on

Chorus:
Bm
And you are my high
G
And you are my high just like
[ Tab from: http://www.guitaretab.com/p/play-radio-play/114457.html ]
Verse:
D
A joint or two just hangin out the window in September
Bm7
On the 28th Iíll be dethroned and sent to clean up my act
D
4 months in a penitentiary where
Bm7
I can read and think Iíll make it home

Chorus:
*No chord
And you are my high
G
And you are my high just like
Bm
And you are my high
G
And you are my high

Verse:
D
Everything I said last night when we were in the car
Bm7
Telling you I knew I knew I knew that we would make it far
D
Everyone in this town will see
Bm7
Someone like you could be with someone like me

D
Even fairy tale characters would jealous
Bm7
Even fairy tale characters would jealous
D
Even fairy tale characters would jealous
Bm7
Even fairy tale characters would jealous

Chorus:
Bm
And you are my high
G
And you are my high just like
Bm
And you are my high
G
And you are...

Outro:
e|--10---------9---9---9---------7---7-----|
B|-----10---10-----------10---10-------10--|
G|--------7-----------------7--------------|
D|-----------------------------------------|
A|-----------------------------------------|
E|-----------------------------------------| X4


TO BE NOTED:
-Because there are no actual chords used in this song, I play the Bm7 (found in the 
out of personal preference. You may play a different variation of the B chord if you desire.
-The D chord sounds best with this song when the chord is played in root position. That 
without the high F note (2nd fret on the high e string), which puts it into first 
This is, of course, just a minor note.
-In the Outro, the low D note (7th fret on the G string) is (once again) added purely 
of personal preference. The actual song does not play this note.
Related for Even Fairy Tale Characters Would Be Jealous tab