Song name
# A B C D E F G H I J K L M N O P Q R S T U V W X Y Z

Play Radio Play - Even Fairytale Characters Would Be Jealous tab

This is generally an easy song. I've got other parts figured out but not enough to piece 
for the whole song. Criticism is encouraged. Enjoy.

e|-------9-10------10-9------9-10------10-9-|
B|----10--------10--------10--------10------|
G|--7---------7---------7---------7---------|
D|------------------------------------------|
A|------------------------------------------|
E|------------------------------------------|

e|-------9-10------10-9------9-10------10-9--|
B|--7-10------7-10------7-10------7-10-------|
G|-------------------------------------------|
D|-------------------------------------------|
A|-------------------------------------------|
E|-------------------------------------------|
Tap to rate this tab
 
# A B C D E F G H I J K L M N O P Q R S T U V W X Y Z