Song name
# A B C D E F G H I J K L M N O P Q R S T U V W X Y Z

Play Radio Play - Decipher Reflection From Reality tab

There are 3 diff part: it's just repetition~

Intro 
E|-------------------------------------------------------------------------|
B|-------------------------------------------------------------------------|
G|----15--------17-15-------12----------------15-------17-15-----12--------|
D|-13-------13----------10------15----13-13--------13--------10------15--13|
A|-------------------------------------------------------------------------|
E|-------------------------------------------------------------------------|

Intermediate 
E|-------------------------------------------------------------------------|
B|-------------------------------------------------------------------------|
G|-----------------------17-15-------15----------13------12------10--------|
D|-13----15----17----13---------------------17-------------------------13--|
A|-------------------------------------------------------------------------|
E|-------------------------------------------------------------------------|

Ending 
E|-------------------------------------------------------------------------|
B|-------------------------------------------------------------------------|
G|------------------------------15------13----12----10---------------------|
D|-13----15----17----13---------------------------------------13-----------|
A|-------------------------------------------------------------------------|
E|-------------------------------------------------------------------------|

Hope you enjoy it~ 
^^
Tap to rate this tab
 
# A B C D E F G H I J K L M N O P Q R S T U V W X Y Z