Song name
# A B C D E F G H I J K L M N O P Q R S T U V W X Y Z

Player - Baby Come Back tab

Help us improve GuitareTab! Take a short survey!
-------------------------------------------------------------------------------
			     BABY COME BACK - pLAyer
-------------------------------------------------------------------------------
Tabbed by:billy sumagui of Grand Honors Band
Email: batas_ko@yahoo.com
Tuning:standard   chord is Bb7sus
http://grandhonorsband.wordpress.com

drums then bass then 
enter on 5 measures

e|---------------------------------------------------------------------------|
B|----------4-6--------4-6---------------------------------------------------|
G|----5-5-7----7----5-5---3--5/7-5-------------------------------------------|
D|---------------------------------------------------------------------------|
A|---------------------------------------------------------------------------|
E|---------------------------------------------------------------------------|

e|---------------------------------------------------------------------------|
B|-------8-9-------------------8-9-------------------------------------------|
G|-8-8-10---10-7---------8-8-10----7--7/10-8---------------------------------|
D|---------------8-----------------------------------------------------------|
A|---------------------------------------------------------------------------|
E|---------------------------------------------------------------------------|

	baby come back		then once of 1st riff before verse 2
e|------------8---8-6--------------------------------------------------------|
B|---------6/8--8------------------------------------------------------------|
G|---------------------------------------------------------------------------|
D|---------------------------------------------------------------------------|
A|---------------------------------------------------------------------------|
E|---------------------------------------------------------------------------|

	2:21
e|---------------------------------------------------------------------------|
B|---12b--12b-10-9-10-9------------------------------------------------------|
G|---------------------11-9-11-----------------------------------------------|
D|----------------------------9-8b-------------------------------------------|
A|---------------------------------------------------------------------------|
E|---------------------------------------------------------------------------|

	3:21  (after:  and i just can't live....)
e|-------------------3---------6-6---6-6---6-6-----3-------------------------|
B|----------5b-3---3---------7b----7b----7b---------3------------------------|
G|-----3-5------3-3- -5-------------------------5-5--5-7-8-10----------------|
D|--5-5-5--------------------------------------------------------------------|
A|---------------------------------------------------------------------------|
E|---------------------------------------------------------------------------|

e|----------------------------------------15-13-11-10-11-10------------------|
B|------11--------11--13-----11--13--11--------------------13----------------|
G|-10-12--------12--12-----12--12--12--12------------------------------------|
D|---------------------------------------------------------------------------|
A|---------------------------------------------------------------------------|
E|---------------------------------------------------------------------------|

e|---------------------------------------------------------------------------|
B|-13-11--------11--------11----------------------------11---13- etc---------|
G|------12-10-12--12-10-12--12-10-12-10--------10-----12---12----------------|
D|-------------------------------------10-12-13------------------------------|
A|---------------------------------------------------------------------------|
E|---------------------------------------------------------------------------|

/slide up \slide down h=hammer-on p=pull-off ~=vibrato +=harmonic x=Mute note
Related for Baby Come Back tab