Song name
# A B C D E F G H I J K L M N O P Q R S T U V W X Y Z

Player - Baby Come Back tab

Tab by Christian Guerrero  “tOy”
Bueno aquí está el tab del solo de la canción de Player, ya que no había ningún tab
y el que había al parecer no era muy cercano a la canción original, y aunque éste que
tal ves tampoco lo sea pues mínimo se escucha bien, reconozco que no es 100% correcto, 
que solo tengo menos de 1 año tocando guitarra y esta es la primer canción que saco a oído,
sin mas que agregar aquí esta la canción. disfrútenla.
Baby come back...
e|-----------------8---8\6-----|
B|-------------6/8---8---------|
G|-----------------------------|
D|-----------------------------|
A|-----------------------------|
E|-----------------------------|

There was something, and everything about you…
e|---------------------------------------------------------|
B|---------------------------------------------------------|
G|-------------------------------------------------------5~|
D|-------------------------------------------------1-3-5---|
A|-------------------------------------------0/3-5---------|
E|---------------1---------3-------------------------------|

You can blame it all on me…
e|--------------------------------|
B|--------------------------------|
G|----7/8\7~--8~--10~---12~-------|
D|--------------------------10----|
A|--------------------------------|
E|--------------------------------|

I was wrong and I just can´t live…
e|------------------------------------------------------|
B|------------------------------------------------------|
G|------------------------------------------------3---5~|
D|--------------------------------------1-3---3-5---5---|
A|--------------------------------0/3-5-----------------|
E|---------1-----------3--------------------------------|

e|-------------------------6-6----6-6---6-6-------------|
B|---5br3-----3-5--------7b----7b-----7b----7p5---5-----|
G|--------3-5-----3h5~--------------------------7---7---|
D|------------------------------------------------------|
A|------------------------------------------------------|
E|------------------------------------------------------|

e|------------------------------------------------------|
B|-----------------------11-----11----13~---11----13~---|
G|--5~-7~-8~-10~---10-12-----12----12----12----12-------|
D|------------------------------------------------------|
A|------------------------------------------------------|
E|------------------------------------------------------|

e|----------14br12----12--------------------------------------|
B|----11-----------13----11/13--13p11----------13p11----------|
G|-12----12---------------------------12-10b12-------12-10b12-|
D|------------------------------------------------------------|
A|------------------------------------------------------------|
E|------------------------------------------------------------|

e|--------------------------------------------------------------|
B|-13p11----------11----------11--------------------------------|
G|-------12-10-12----12-10-12----12-10-12-10-8-10-8----------10~|
D|--------------------------------------------------10~12~13~---|
A|--------------------------------------------------------------|
E|--------------------------------------------------------------|

e|-----------------------------15-------15--------15--------|
B|-----11----13----11----13-------16-13----16-13-----16-13~-|
G|--12----12----12----12----12------------------------------|
D|----------------------------------------------------------|
A|----------------------------------------------------------|
E|----------------------------------------------------------|

e|-14br12-14----14br12-14----14br12-14----------------------------------|
B|-----------13-----------13-----------13-11-13-11----------------------|
G|----~--------------------------------------------12-10-------10-------|
D|-------------------------------------------------------10-12----10-10~|
A|----------------------------------------------------------------------|
E|----------------------------------------------------------------------|

Creo que la notación de los signos ya la conocen así que me ahorro ese comentario.

Saludos.
Tap to rate this tab
 
# A B C D E F G H I J K L M N O P Q R S T U V W X Y Z