Guitaretab - guitar tabs
Song name
# A B C D E F G H I J K L M N O P Q R S T U V W X Y Z

Playjerise - Safe To Say tab

Safe to Say  Playjerise                  (Capo 3rd Fret)

e|--2h3---x----------x-----------x--2---------x-------|
b|------3-x--3-------x-----------x--3---------x-------|
g|--------x--0-------x-2p0------x------------x-------|
d|--2-----x----------x-----------x--0---------x-------|
a|--------x--3-------x-----------x------------x-------|
e|--------x----------x--3--------x------------x-------|
[ Tab from: http://www.guitaretab.com/p/playjerise/102159.html ]
e|--2h3---x----------x-----------x------------x-------|
b|------3-x--3-------x-----------x--3---------x-------|
g|--------x--0-------x-2p0------x--0---------x-------|
d|--2-----x----------x-----------x------------x-------|
a|--------x--3-------x-----------x------------x-------|
e|--------x----------x--3--------x--3---------x-------|

e|--2h3---x----------x-----------x--2---------x-------|
b|------3-x--3-------x-----------x--3---------x-------|
g|--------x--0-------x-2p0------x------------x-------|
d|--2-----x----------x-----------x--0---------x-------|
a|--------x--3-------x-----------x------------x-------|
e|--------x----------x--3--------x------------x-------|

e|---2---3------3---3-------------|
b|-----------3------3-------------|
g|-----------0------0-------------|
d|---2--------------2-------------|
a|-----------3------3-------------|
e|--------------------------------|

H= Hammer on
X= Palm Mute

if anyone has more playjerise tabs please send them to me at morpheus_the_awesome@hotmail.com

www.playjerise.com.au
Related for Safe To Say tab