Song name
# A B C D E F G H I J K L M N O P Q R S T U V W X Y Z

Playjerise - Belive It Or Not tab

Help us improve GuitareTab! Take a short survey!
Playjerise - Believe It Or Not

Intro 

Now i know its not the whole song, 
but i've only been able to work out the first part of the tab,
which is the main riff cause i havent had time to work out the rest 
but im still sending this cause i know how eager people have been waiting for it....

Now the intro riff is in a straight quaver pace/tempo.

e|----------------|-------5--------|----------------|-------5--------|
B|-------0-2h3p2--|-----3-------2h3|-------0-2h3p2--|-----3-------2h3|
G|---0-2---------2|---2-------2----|---0-2---------2|---2-------2----|
D|-0--------------|-4-------2------|-0--------------|-4-------2------|
A|----------------|----------------|----------------|----------------|
E|----------------|----------------|----------------|----------------|

Or

e|----------------|-------5--------|----------------|-------5--------|
B|----------------|-----3-------2h3|----------------|-----3-------2h3|
G|-------4-6h7p6--|---2-------2----|-------4-6h7p6--|---2-------2----|
D|---5-7---------7|-4-------2------|---5-7---------7|-4-------2------|
A|-5--------------|----------------|-5--------------|----------------|
E|----------------|----------------|----------------|----------------|

Thats all i have but apart from the chorus and bridge thats all you need.

Email me about the tab : bass-_-boy@hotmail.com
Related for Belive It Or Not tab