Song name
# A B C D E F G H I J K L M N O P Q R S T U V W X Y Z

Playjerise - Settle With Me tab

Playjerise  Settle With Me                  
(Capo 8th Fret)

Structure
1.	Intro/verse x 2
2.	Intro/verse x 2 (with vocals)
3.	Chorus x 2
4.	Intro/verse x 4
5.	Chorus x 4
6.	Bridge x 4
7.	Intro/verse x 2

h = hammer on
/ = slide up


Intro/Verse

e|-------3-----7---3-------------------2--------------|
b|---------3---------------------3---------3----------|
g|-4---------4---4-----------------2------------------|
d|-------------------------4---------4---4------------|
a|----------------------------------------------------|
e|----------------------------------------------------|

e|-------------0--------------------------------------|
b|-----------------3-------3-----------3--------------|
g|-------0-----------------------0-------0------------|
d|---------2-----------------------0------------------|
a|-3---------3---3-------------------2----------------|
e|-------------------------3--------------------------|


Chorus

e|----------------------------------------------------|
b|-------------0-----------------------0--------------|
g|-------0---------0-------------0---------0----------|
d|---------0-----------------------0------------------|
a|-3---------3---3------------------------------------|
e|-------------------------3---------3---3------------|

e|-------------2-----------------------3--------------|
b|----------------------------------------------------|
g|-------0---------0-------------0---------0----------|
d|---------0-----------------------0------------------|
a|-2---------2---2------------------------------------|
e|-------------------------0---------0---0------------|


 
Bridge

e|--------------------------------|
b|--------------------------------|
g|---0-------0---0---0------------|
d|-5-----5-4---2---0--------------|
a|-----------------------0h2------|
e|---------------------3----------|

e|--------------------------------|
b|---0-------0---0----------3h5-3-|
g|-4-----4-2---0------------------|
d|-----------------4/5------------|
a|--------------------------------|
e|--------------------------------|


Let me know if you have any feedback or suggestions.
Tap to rate this tab
 
# A B C D E F G H I J K L M N O P Q R S T U V W X Y Z