Guitaretab - guitar tabs
Song name
# A B C D E F G H I J K L M N O P Q R S T U V W X Y Z

Playradioplay - Oh Happy Neighbour tab

Oh, Happy Neighbour!  PlayRadioPlay!

Intro
e|------------|
b|------------|
g|----12-10---| x4
d|-13-12-10---|
a|-13-10-8----|
e|-11---------|

These walls have eyes and ears and souls..
e|------------|
b|------------|
g|------------|  x2
d|-13-13-5-3--|
a|-13-13-5-3--|
e|-11-11-3-1--|

We see the beauty in the
e|------------|
b|------------|
g|------------|
d|-8--10------|
a|-8--10------|
e|-6--8-------|
[ Tab from: http://www.guitaretab.com/p/playradioplay/181233.html ]
Dischord.. (Same as intro)
e|------------|
b|------------|
g|----12-10---| x2
d|-13-12-10---|
a|-13-10-8----|
e|-11---------|

This lonely king walks through his land..
e|------------|
b|------------|
g|------------|  x2
d|-13-13-5-3--|
a|-13-13-5-3--|
e|-11-11-3-1--|

We see the beauty in the dischord..
e|---------------|
b|---------------|
g|---------------|
d|-8--10--5--3---|
a|-8--10--5--3---|
e|-6--8--3--1---|

Getting you off, you off, we could be happy..
e|-----------|
b|-----------|
g|-----------| x2
d|-13-8-3-5--|
a|-13-8-3-5--|
e|-11-6-1-3-|

e|-----
b|-----
g|-----  (Or repeat verse and chorus)
d|-13--
a|-13--
e|-11-
Related for Oh Happy Neighbour tab