Song name
# A B C D E F G H I J K L M N O P Q R S T U V W X Y Z

Pleymo - New Wave tab

I realised that there wasnt many pleymo tabs on UG so i decided to submit 'New
Wave' from the album 'medicine cake'.
ENJOY!
ANY PROBLEMS ,HATE MESSAGES , DEATH THREATS ETC....: henboy79@hotmail.com
[EADGBE]
Intro/Refrain:
-------------------------------|
-------------------------------|
-------------------------------|
---0-0---2-1-0-1--2-1-0-1--1---|
---0-0---2-1-0-1--2-1-0-1--1---|
---0-0---2-1-0-1--2-1-0-1--1---|

Couplet(VERSE):
-----------------------------------|
-------13--------14------15---14---|
---11--------12-------13-----------|
-----------------------------------|
-----------------------------------|
-----------------------------------|

------------10-9---------------------------10-9-----11/12---|
-------------------------14---------------------------------|
-------9------------11-----------------9--------------------|
---11----------------------------11-------------------------|
------------------------------------------------------------|
------------------------------------------------------------|
FILL:
-------------------------------------|
-------------------------------------|
-------------------------------------|
---0-0-0-0-0-0-0-0-2-2-2-2-1-1-1-1---|
---0-0-0-0-0-0-0-0-2-2-2-2-1-1-1-1---|
---0-0-0-0-0-0-0-0-2-2-2-2-1-1-1-1---|

Pont(BRIDGE):
---x-x-x------------------| (x3)
---x-x-x------------------|
---x-x-x------------------|
-----------|-----0-0-0----|
-----------|-----0-0-0----|
-----------|-----0-0-0----|

---------------------|
---------------------|
---------------------|
---0-2-0-3---0-2-0---|
---0-2-0-3---0-2-0---|  (x4)
---0-2-0-3---0-2-0---|
Tap to rate this tab
# A B C D E F G H I J K L M N O P Q R S T U V W X Y Z