Song name
# A B C D E F G H I J K L M N O P Q R S T U V W X Y Z

Pleymo - Le Nouveau Monde tab

some riffs
intro
e||-------------------------------------|
b||-------------------------------------|
g||-------------------------------------|
d||-0-2-3-3--0-2-3-3--0-2-3-3--0-2-3-3--|
a||-0-2-3-3--0-2-3-3--0-2-3-3--0-2-3-3--|
d||-0-2-3-3--0-2-3-3--0-2-3-3--0-2-3-3--|

1 Guitar
e||-----------------------------------|
b||-----------------------------------|
g||-------------------------------5-5-|
d||--0-2-3-3--0-2-3-3--0-2-3-3--0-----|
a||--0-2-3-3--0-2-3-3--0-2-3-3--0-3-5-|
d||--0-2-3-3--0-2-3-3--0-2-3-3--0-----|

2 Guitar
kicks in after repeating previous riff 2 times
e||-------------------------------|
b||-------------------------------|
g||-5-5-5-5-5-7-7-7-7-7-9-9-9-9-9-|
d||-------------------------------|
a||-3-3-3-3-3-5-5-5-5-5-7-7-7-7-7-|
d||-------------------------------|

ummh.. solo? repeats a lot of times, last time "10" is played with slight vibrato
e||-----------------------|
b||-----------------------|
g||-12-10-9----9-10-12-10-|
d||---------10------------|
a||-----------------------|
d||-----------------------|
Tap to rate this tab
# A B C D E F G H I J K L M N O P Q R S T U V W X Y Z