Song name
# A B C D E F G H I J K L M N O P Q R S T U V W X Y Z

Plug In Stereo - Oh Darling tab

This is my first tab and I'm pretty sure this is right enough. 

Capo 2nd Fret

Verse 1
|---3---3-3---7h8p7p0-1/3/1p0---3---3-3---7h8/12-12/14----|
|---3---3-3---------------------3---3-3---------------14--|
|-----------0---------------------------0-----------------|  x6
|-3---------------------------3---------------------------|
|-----3---------------------------3-----------------------|
|---------------------------------------------------------|

Bridge
  F   Em  C 
|-1---0------|
|-1---0---1--|
|-2---0---0--|
|-3---2---2--|  x2
|-----2---3--|
|-----0------|

Chorus
|---3---3---3---3----3---3---3---3-----|
|--------------------------------------|
|-----0-------0--------0-------0-------|
|-2-------2--------3-------3-----------|  x4
|--------------------------------------|
|--------------------------------------|

Verse 2
|---3---3-3---7h8p7p0-1/3/1p0---3---3-3---7h8/12-12/14----|
|---3---3-3---------------------3---3-3---------------14--|
|-----------0---------------------------0-----------------|  x6
|-3---------------------------3---------------------------|
|-----3---------------------------3-----------------------|
|---------------------------------------------------------|

Bridge
  F   Em  C 
|-1---0------|
|-1---0---1--|
|-2---0---0--|
|-3---2---2--|  x2
|-----2---3--|
|-----0------|

Chorus
|---3---3---3---3----3---3---3---3-----|
|--------------------------------------|
|-----0-------0--------0-------0-------|
|-2-------2--------3-------3-----------|  x4
|--------------------------------------|
|--------------------------------------|

Bridge #2

  F  Em G  C  F
|-1--0--1-----1--|
|-1--0--1--1--1--|
|-2--0--0--0--2--|  
|-3--2--0--2--3--|
|----2--2--3-----|
|----0--3--------|

End Chorus
|-3---3---|
|-1---1---|
|-0---2---|
|-2---3---|
|-3-------|
|---------|
Tap to rate this tab
 
# A B C D E F G H I J K L M N O P Q R S T U V W X Y Z