Plug In Stereo - But I Cant tab

Intro
Hold the chord. I could figure out whats between the two parts.

|------------2-------------|
|------------2-------------|
|--4-----6---4-------------|
|2---2-4-6-4-4-------------| 4X
|------------2-------------|
|------------2-----0-2-4-0-|

Verse 1

|------------9----11-----7/7-7-7-7-7|
|--4---4-12----12----0-0-8/8-8-8-8-8|
|2---2---------------9-9-9/9-9-9-9-9|4X
|------------------------9/9-9-9-9-9|
|------------------------7/7-7-7-7-7|

Chorus

|7-x---x-7/7-x-7/7-x-11-x---7/7-x-7/7-x-|
|7-x---x-7/7-x-7/7-x-12-x---7/7-x-7/7-x-|
|9-x---x-8/8-x-8/8-x-13-x---8/8-x-8/8-x-|
|9-x-8-x-9/9-x-9/9-x-13-x-8-9/9-x-9/9-x-|4X
|7-x---x-9/9-x-9/9-x-11-x---9/9-x-9/9-x-|
|7-x---x-7/7-x-7/7-x-11-x---7/7-x-7/7-x-|

but on the 4th time play this instead of whats after the 2nd 8 on the d string.
|7-x---7/7-7-7-7-7|
|7-x---7/7-7-7-7-7|
|9-x---8/8-8-8-8-8|
|9-x-8-9/9-9-9-9-9|
|7-x---9/9-9-9-9-9|
|7-x---7/7-7-7-7-7|

Brigde

|------------2-------------|
|------------2-------------|
|--4-----6---4-------------|
|2---2-4-6-4-4-------------| 4X
|------------2-------------|
|------------2-----0-2-4-0-|

Verse 2
|------------9----11-----7/7-7-7-7-7|
|--4---4-12----12----0-0-8/8-8-8-8-8|
|2---2---------------9-9-9/9-9-9-9-9|4X
|------------------------9/9-9-9-9-9|
|------------------------7/7-7-7-7-7|

Chorus

|7-x---x-7/7-x-7/7-x-11-x---7/7-x-7/7-x-|
|7-x---x-7/7-x-7/7-x-12-x---7/7-x-7/7-x-|
|9-x---x-8/8-x-8/8-x-13-x---8/8-x-8/8-x-|
|9-x-8-x-9/9-x-9/9-x-13-x-8-9/9-x-9/9-x-|4X
|7-x---x-9/9-x-9/9-x-11-x---9/9-x-9/9-x-|
|7-x---x-7/7-x-7/7-x-11-x---7/7-x-7/7-x-|

Verse 3
|------------9----11-----7/7-7-7-7-7|
|--4---4-12----12----0-0-8/8-8-8-8-8|
|2---2---------------9-9-9/9-9-9-9-9|4X
|------------------------9/9-9-9-9-9|
|------------------------7/7-7-7-7-7|
Tap to rate this tab
 
# A B C D E F G H I J K L M N O P Q R S T U V W X Y Z