Plug In Stereo - But I Cant tab

But I Cant 
by: Plug In Stereo
Capo 2 or 4 (depending on the version)
You find the Rhythms

Intro:
e|-----------------------------------------|
B|--------------------3------3-------------|
G|------0-------------0------0-------------|
D|------------0h2p0--------0---------------|
A|---3----3--------------------------------|
E|-----------------------3------3/5-0------|   (repeat)

e|--------------------------------------|
B|--------------------3-----------------|
G|------0-------------0-----------------|
D|------------0h2p0---------------------|
A|---3----3-----------------------------|
E|-----------------------3~-/5----------|  

Verse:  
e|-------------------5----7----------------333--3-3-3--------|
B|----3-----3/7------7----8------3----3----333--3-3-3--------|
G|----0-----0-----0---0----------0----0----000--0-0-0--------|
D|----------------------------4----5-------555--5-5-5--------|
A|--3----3---------------------------------555--5-5-5--------|
E|-----------------------------------------------------------|

Chorus Chords:							
e|-----------------|					
B|--3----7--8------|						
G|--0----0--0------|						
D|--0----0--0------|					
A|--3----5--7------|					
E------------------|						
								  

Alternate Chorus Chords (if you prefer): 		
e|--3----5--7------|
B|--3----7--8------|
G|--0----0--0------|
D|--0----0--0------|
A|--3----5--7------|
E------------------|

Song Order:
Intro
Verse
Chorus
Intro 
Verse
Chorus
Verse
Tap to rate this tab
 
# A B C D E F G H I J K L M N O P Q R S T U V W X Y Z