Plug In Stereo - Oh Darling tab

----------------------------------------------------------------------------
			  Oh darling - Plug in Stereo

Kay, I didn’t figure out this tab, someonegreen did, I just transposed it all and 
cleaned it up so it was simpler to read. Someonegreen gets credit for the tab.

Performed by someonegreen: http://www.youtube.com/watch?v=pz_6IfrgBjQ

Tuning: standard (capo on 7)

Verse(x3): You seem quite nice…..
e|---------------2h3p2p0--------------------------2h3/5------5/7-0-|
B|----3----3-3------------1/3\1p0----3----3--3---------------------|
G|----0----0-0-----------------------0----0--0---------------------|
D|--------------0-------------------------------0--------0---------|
A|--3------------------------------3-------------------------------|
E|-------3------------------------------3--------------------------|


In between verse:
e|-------------------3-3-3-3-3-3-2-0-------------------------------|
B|--/3--0-------------------------------3-3/5-3-0------------------|
G|-------2-2/4-0----------------------------------------2-2/4-0----|
D|-----------------------------------------------------------------|
A|-----------------------------------------------------------------|
E|-----------------------------------------------------------------|

Verse (x2) You seem quite shy…

Pre-chorus: I really want to…
e|-------------------------------------------------------------|
B|-3---3----------3---3----0-0----3---3----------3---3------0--|
G|-0----0---------0----0---0--0---0----0---------0----0-----0--|
D|-0-----2-0h2p0--2-----2--0---0--0-----2-0h2p0--2-----2----0--|
A|-2--------------3--------2------2--------------3------3---2--|
E|-------------------------3--------------------------------3--|

Chorus: Oh darling, I love you so…
e|---------------------------------------------------------------------|
B|---3---3----3---3----3---3----3---3---3---3---3----3--3---3---3---3--|
G|---0---0----0---0----0---0----0---0---0---0---0---0---0---0---0---0--|
D|------------------------2--------2-------0-------0-------------------|
A|------2--------2----3-------3--------2-------2-----------0-------0---|
E|-3--------3------------------------------------------2-------2-------|

e|---------------------------------------------------------------------------|
B|---3---3----3---3----3---3----3---3---3---3---3----3--3---3---3---3-----3--|
G|---0---0----0---0----0---0----0---0---0---0---0---0---0---0---0---0-----0--|
D|------------------------2--------2-------0-------0----------------------0--|
A|------2--------2----3-------3--------2-------2-----------0-------0------2--|
E|-3--------3------------------------------------------2-------2----------3--|

Verse(x2) You seem quite right…

Pre-chorus: I really want to…
e|------------------------|
B|-3---3---0---3---3---0--|
G|-0---0---0---0---0---0--|
D|-0---2---0---0---2---0--|
A|-2---3---2---2---3---2--|
E|---------3-----------3--|

Chorus:Oh Darling..

e|---------------------------------------------------------------------|
B|---3---3----3---3----3---3----3---3---3---3---3----3--3---3---3---3--|
G|---0---0----0---0----0---0----0---0---0---0---0---0---0---0---0---0--|
D|------------------------2--------2-------0-------0-------------------|
A|------2--------2----3-------3--------2-------2-----------0-------0---|
E|-3--------3------------------------------------------2-------2-------|

e|---------------------------------------------------------------------------|
B|---3---3----3---3----3---3----3---3---3---3---3----3--3---3---3---3-----3--|
G|---0---0----0---0----0---0----0---0---0---0---0---0---0---0---0---0-----0--|
D|------------------------2--------2-------0-------0----------------------0--|
A|------2--------2----3-------3--------2-------2-----------0-------0------2--|
E|-3--------3------------------------------------------2-------2----------3--|

Bridge: So I gotta ask you..
e|-------------5--0------------------|
B|--0------3---3--0--0------3---3->--|
G|--0--0---0---2--0--0--0---0---0>---|
D|--2--0---0---------2--0---0---0>---|
A|--2--2---0---------2--2---0---0>---|
E|-----3----------------3-------2>---|

Outro:
e|-------------------------------------------------------|
B|-3--3---3--3---3—-3---3—-3---3—-3---3—-3---3—-3---3>---|
G|-0--0---0--0---0--0---0--0---0--2---0--0---0--0---0>---|
D|-0--0---2--2---0--0---0--0---0--2---2--2---0--0---0>---|
A|-2--2---3--3---2--2---0--0---2--2---3—-3---2--2---0>---|
E|-3--3-----------------2--2---3--3-----------------2>---|

e|-------------------------------------------|
B|--3>--3>--3>--3>--3>--3>--3>--3>---3-------|
G|--0>--0>--0>--0>--0>--0>--0>--0>---0-------|
D|--0>--2>--0>--0>--0>--2>--0>--0>---0-------|
A|--2>--3>--2>--0>--2>--3>--2>--0>---2--0h2--|
E|--3>----------2>--3>----------2>---3-------|

************************************

| >   strum (too lazy to type all the chords out)
| /   slide up
| \   slide down
| h   hammer-on
| p   pull-off
| ~   vibrato
| +   harmonic
| x   Mute note
| b   Bend
| pb  Pre-bend
| br  Bend release
| pbr Pre-bend release
| brb Bend release bend

************************************
************************************
************************************
Tap to rate this tab
 
# A B C D E F G H I J K L M N O P Q R S T U V W X Y Z