Song name
# A B C D E F G H I J K L M N O P Q R S T U V W X Y Z

Plug In Stereo - But I Cant tab

Intro
|----------------------------------------------------|
|----------------------------------------------------|
|--4-4/6\4-------4--4-4/6\4------4--4--4/6\4------4--|
|-2-2------------4-2-2-----------4-2-2------------4--|
|----------2-4-0-----------2-4-0------------2-4-0----|
|----------------------------------------------------|

|----------------------------------------------------|
|----------------------------------------------------|
|--4-4/6\4-4-----------------------------------------|
|-2-2------4-3---------------------------------------|
|------------3---------------------------------------|
|----------------------------------------------------|
Verse x4
|----------9----10----------------7-77-77------------|
|--4--5----12---12------0------0--7-77-77------------|
|--4--4--11---11------------------8-88-88------------|
|-2--2--------------9-0h9--9-0h9--7-77-77------------|
|---------------------------------9-99-99------------|
|---------------------------------9-99-99------------|
Chours x5
|---XX-----------------------------------------------|
|---XX----12-12--12-12------12-12-12-12--------------|
|-9-XX----11-11--11-11-13---11-11-11-11--------------|
|-9-XX--8-9--9---9--9--13-8-9--9--9--9---------------|
|-7-XX-----------------11----------------------------|
|---XX-----------------------------------------------|
Ending
|-7-77-77--------------------------------------------|
|-7-77-77--------------------------------------------|
|-8-88-88--------------------------------------------|
|-7-77-77--------------------------------------------|
|-9-99-99--------------------------------------------|
|-9-99-99--------------------------------------------|
Order Of Song
Intro
Verse
Chours+Ending after 5th time
Intro
Verse
Chours+Ending after 5th time
Verse
Ending
Tap to rate this tab
 
# A B C D E F G H I J K L M N O P Q R S T U V W X Y Z