Song name
# A B C D E F G H I J K L M N O P Q R S T U V W X Y Z

Plumb - In My Arms tab

-------------------------------------------------------------------------------
			     In My Arms - Plumb
-------------------------------------------------------------------------------
First tab I've written, hope it's helpful. Comment or E-mail
NOTE: All notes given are relative to the lowered tuning
Tabbed by:CMolinet
Email:chrismolinet@yahoo.com

Tuning:Half Step Down (key - Gb/F#)
  (1st time only)
     Ebm                                 B
eb|------3------2-----3------5---3-----------3-----2-----3-----5--------------|
Bb|----0------0-----0------0--------------------------------------------------|
Gb|----------------------------------------0-----0-----0-----0----------------| 
Db|--2------2-----2------2----------------------------------------------------|
Ab|--------------------------------------3-----3-----3-----3------------------|
Eb|---------------------------------------------------------------------------|
     
     VERSE
     Ebm                                 B
eb|------3------2-----3------5---3-----------3-----2-----3-----5--7-----------|
Bb|----0------0-----0------0--------------------------------------------------|
Gb|----------------------------------------0-----0-----0-----0----------------|
Db|--2------2-----2------2----------------------------------------------------|
Ab|--------------------------------------3-----3-----3-----3------------------|
Eb|---------------------------------------------------------------------------|
     Ebm                                 Abm
eb|------3------2-----3------5---3-----------------------------0-----2--------|
Bb|----0------0-----0------0-----------------1-----1-----3--------------------|
Gb|---------------------------------------------------------------------------|
Db|--2------2-----2------2-----------------2-----2-----2-----2-----2----------|
Ab|--------------------------------------0-----0-----0-----0-----0------------|
Eb|---------------------------------------------------------------------------|
    
     CHORUS
     Gb            C#/F            Ebm             B
eb|--3-------------2---------------0---------------0--------------------------|
Bb|--3-------------3---------------3---------------1--------------------------|
Gb|--0-------------2---------------0---------------0--------------------------|
Db|--0-------------0---------------2---------------2--------------------------|
Ab|--2-------------x---------------2---------------3--------------------------|
Eb|--3-------------2---------------0---------------x--------------------------|
                         
     (between Chorus and Verse 2)
     Ebm                                 Abm
eb|------3------2-----3------5---3-----------------------------0-----2--------|
Bb|----0------0-----0------0-----------------1-----1-----3--------------------|
Gb|---------------------------------------------------------------------------|
Db|--2------2-----2------2-----------------2-----2-----2-----2-----2----------|
Ab|--------------------------------------0-----0-----0-----0-----0------------|
Eb|---------------------------------------------------------------------------|

     BRIDGE
     B             Ebm             B               Abm             
eb|--0-------------0---------------0---------------0--------------------------|
Bb|--1-------------3---------------1---------------1--------------------------|
Gb|--0-------------0---------------0---------------2--------------------------|
Db|--2-------------2---------------2---------------2--------------------------|
Ab|--3-------------2---------------3---------------0--------------------------|
Eb|--x-------------0---------------x---------------x--------------------------|

      (after BRIDGE play CHORUS part)


Tap to rate this tab
 
# A B C D E F G H I J K L M N O P Q R S T U V W X Y Z