Song name
# A B C D E F G H I J K L M N O P Q R S T U V W X Y Z

Plumb - Invisible chords

Highlighted       Show chord diagrams
Hey guys! This tab is for Plumb's awesome song, "Invisible". As you can see, I posted 
the guitar tab and the chords for you guys! I got everything by ear so feel free to 
correct me. Thanks for viewing and God bless!


                            PLUMB - Invisible
                               CAPO on 5


*TAB FOR Intro, Verses, and Ending*:

    Dm
e|--------0--1--------------------0--1--------------|
B|--------------3-----------------------3-----------|
G|-----2-----------2-----2-----2-----------2-----2--|
D|--0-----------------0-----0-----------------0-----|
A|--------------------------------------------------|
E|--------------------------------------------------|

   Bbm
e|--------0-----------------------0-----------------|
B|-----------2-----------------------2--------------|
G|--------------3-----------------------3-----------|
D|-----3-----------3-----3-----3-----------3-----3--|
A|--1-----------------1-----1-----------------1-----|
E|--------------------------------------------------|

Dm
  I'm sick and then I'm well
                   Bbm
So full, so empty still

You leave me wanting
Dm
  Oh tell me where'd you go
           Bbm
Don't be invisible

Cause I am reaching

Dm
  Save me
       Bbm
Go on break the glass
Dm
  Take me
           Bbm
I'm never going back, No


Dm      Bbm
  Oh oh oh oh
Dm      Bbm
  Oh oh oh oh


Dm
  Here on the other side
                       Bbm
Oh there's no place to hide

My heart is racing
Dm
  Hold me, take me in
              Bbm
Without you I can't live

Gravity's pulling

Dm
  Save me
               Bbm
It's our only chance
Dm
  Take me
            Bbm
There's no going back


Dm      Bbm
  Oh oh oh oh
Dm      Bbm
  Oh oh oh oh


Dm
  I cannot see you
Bbm
  But I can feel you
Am
  I just wanna be with you
      A
I've nowhere else to go
      A
I've nowhere else to go


Dm      Bbm
  Oh oh oh oh
Dm      Bbm
  Oh oh oh oh
Dm      Bbm
  Oh oh oh oh
Dm      Bbm
  Oh oh oh oh


~julieeheeart08
;)
Tap to rate this tab
 
# A B C D E F G H I J K L M N O P Q R S T U V W X Y Z