Song name
# A B C D E F G H I J K L M N O P Q R S T U V W X Y Z

Plumbo - Mkkamann chords

Highlighted       Show chord diagrams
MØKKAMANN

|------------1-1---1-0-----|---0-3-1-0-----------|-5-6-5-3-1---|
|----3-3---3-----3---------|-----------3-1---1-3-|-----------3-|
|--2-----2-------------2---|-2-------------2-----|-------------|
|--------------------------|---------------------|-------------|
|--------------------------|---------------------|-------------|
|--------------------------|---------------------|-------------|

|------------1-1---1-0-1-3-|-3-5-3-1-0-----------|
|----3-3---3-----3---------|-----------3-1--1-3--|
|--2-----2-----------------|---------------2-----|
|--------------------------|---------------------|
|--------------------------|---------------------|
|--------------------------|---------------------|



Vers 1:
Dm                      Am
Langt inni skauen ja så bor det
       Dm         C       Dm
En som ikke mange før har møtt
                       Am
Bygda er på vakt og de hakke ro
          Bb         C           Dm
La skauen skjule noe fælt og noe sprøtt



Vers 2:
       Dm                      Am
Han er aldri nedi bygda blandt andre
          Dm          C            Dm
Han lever ensom og på skogens høye tind
                             Am
Vi veit når han er ute for å vandre
           Bb           C           Dm
Vi kjenner lukta ja den følger nordavind



Refregn:
           F                C
For det er møkkamann som er ute
          Bb                   A
Han er på leit etter kjerringa si
    Dm              Am
Han lokkar på a med fløyte
    Bb      C        Dm
Men dama er rein fantasi



Mellomspill:
Dm Am Dm C Dm
   Am Bb C Dm



Vers 3:
Dm                Am
Før så levde møkkamannen
        Dm    C         Dm
Med sin kjære i et lite hus
                                Am
Men en dag så fant hun en annen en
      Bb            C           Dm
Siden den gang falt livet hans i grus



Refregn:
           F                C
For det er møkkamann som er ute
          Bb                   A
Han er på leit etter kjerringa si
    Dm              Am
Han lokkar på a med fløyte
    Bb      C        Dm
Men dama er rein fantasi



Mellomspill:
Am Dm C Dm
Am Bb C Dm
F C Bb A
Dm Am Bb C Dm



                               C
Når sola står på himmeln og vi sitter rundt et bord
   Dm                  C
Da er det lite tegn på liv i der fra nord
    Dm                           C
Men plutselig går alt i svart og nordavinden flår
    Bb                             Am
Det høres ut som Thor med hammer'n slår



Samme som vers (hviskes):
    Dm                 Am
Det merkes på bygda om kvelden
          Dm     C             Dm
Vi lukker døra å tar på lås og slå
                      Am
Og ser folk ute da er skjelden
     Bb               C                    Dm
Alle veit hva som vil skje og hvor de skal gå



Refregn x2:
           F                C
For det er møkkamann som er ute
          Bb                   A
Han er på leit etter kjerringa si
    Dm              Am
Han lokkar på a med fløyte
    Bb      C        Dm
Men dama er rein fantasi



Outro:
Am Dm C Dm
Am Bb C Dm
Tap to rate this tab
# A B C D E F G H I J K L M N O P Q R S T U V W X Y Z