Song name
# A B C D E F G H I J K L M N O P Q R S T U V W X Y Z

Plus 44 - Lycanthrope tab

Lycanthrope                   (+44)



  Q=90
 4/4
  Gtr I
   S  S  S  S  S  S  S  S  S  S  S  S S S S S
|---------------------------------------------|
|---------------------------------------------|
|-------------------------------------7-7-7-9-|
|-10-10-10-10-10-10-10-10-10-10-10-10-0-0-0---|
|-------------------------------------------7-|
|--8--8--8--8--8--8--8--8--8--8--8--8---------|


  +S  S S S S S S  S  +S   S  S  S  S  S  S  S
|-----------------------------------------------|
|-----------------------------------------------|
|-(9)-9-9-9-9-9-9-10-(10)-10-10-10-10-10-10-----|
|-------------------------------------------10--|
|-(7)-7-7-7-7-7-7--8--(8)--8--8--8--8--8--8-----|
|--------------------------------------------8--|


   +S   S  S  S  S  S  S  S  S  S  S  S S S S S
|-----------------------------------------------|
|-----------------------------------------------|
|---------------------------------------7-7-7-9-|
|-(10)-10-10-10-10-10-10-10-10-10-10-10-0-0-0---|
|---------------------------------------------7-|
|--(8)--8--8--8--8--8--8--8--8--8--8--8---------|
|
| Gtr II
|   W
|-----------------------------------------------|
|-----------------------------------------------|
|-----------------------------------------------|
|-----------------------------------------------|
|-----------------------------------------------|
|-----------------------------------------------|


  +S  S S S S S S  S  +S  S S S S S S  S
|----------------------------------------|
|----------------------------------------|
|-(9)-9-9-9-9-9-9-10-(10)----------------|
|-------------------------9-9-9-9-9-9-10-|
|-(7)-7-7-7-7-7-7--8--(8)----------------|
|-------------------------7-7-7-7-7-7--8-|
|
|  H                   Q        E   S  S
|----------------------------------------|
|----------------------------------------|
|--------------------------------------7-|
|--------------------------------------0-|
|----------------------------------------|
|----------------------------------------|


   +S   S  S  S  S  S  S  S  S  S  S  S  S  S  S  S
|---------------------------------------------------|
|---------------------------------------------------|
|----------------------------------------7--7--7--9-|
|-(10)-10-10-10-10-10-10-10-10-10-10-10--0--0--0----|
|-------------------------------------------------7-|
|--(8)--8--8--8--8--8--8--8--8--8--8--8-------------|
|
|  +S   S  S  S  S  S  S  S  S  S  S  S  S  S  S  S
|---------------------------------------------------|
|---------------------------------------------------|
|--(7)--9--9--9--9--9--9--9--9--9--9--9-10-10-10-10-|
|--(0)----------------------------------------------|
|-------7--7--7--7--7--7--7--7--7--7--7--8--8--8--8-|
|---------------------------------------------------|


   +S   S  S  S  S  S  S  S  +S   S  S  S  S  S  S  S
|-----------------------------------------------------|
|-----------------------------------------------------|
|--(9)--9--9--9--9--9--9-10-(10)-10-10-10-10-10-10----|
|--------------------------------------------------10-|
|--(7)--7--7--7--7--7--7--8--(8)--8--8--8--8--8--8----|
|---------------------------------------------------8-|
|
|  +S   S  S  S  S  S  S  S  +S   S  S  S  S  S  S  S
|-----------------------------------------------------|
|-----------------------------------------------------|
|-(10)------------------------------------------------|
|------14-14-14-14-14-14-14-(14)-12-12-12-12-12-12-12-|
|--(8)------------------------------------------------|
|------12-12-12-12-12-12-12-(12)-10-10-10-10-10-10-10-|


   +S   S  S  S  S  S  S  S  S  S  S  S  S  S  S  S
|---------------------------------------------------|
|---------------------------------------------------|
|----------------------------------------7--7--7--9-|
|-(10)-10-10-10-10-10-10-10-10-10-10-10--0--0--0----|
|-------------------------------------------------7-|
|--(8)--8--8--8--8--8--8--8--8--8--8--8-------------|
|
|  +S   S  S  S  S  S  S  S  S  S  S  S  S  S  S  S
|---------------------------------------------------|
|---------------------------------------------------|
|---------------------------------------------------|
|-(12)-14-14-14-14-14-14-14-14-14-14-14-15-15-15-15-|
|---------------------------------------------------|
|-(10)-12-12-12-12-12-12-12-12-12-12-12-13-13-13-13-|


   +S   S  S  S  S  S  S  S  +S   S  S  S  S  S  S  S
|-----------------------------------------------------|
|-----------------------------------------------------|
|--(9)--9--9--9--9--9--9-10-(10)----------------------|
|---------------------------------9--9--9--9--9--9--7-|
|--(7)--7--7--7--7--7--7--8--(8)--------------------0-|
|---------------------------------7--7--7--7--7--7----|
|
|  +S   S  S  S  S  S  S  S  +S   S  S  S  S  S  S  S
|-----------------------------------------------------|
|-----------------------------------------------------|
|------------------------14-(14)-14-14-14-14-14-14-10-|
|-(15)-14-14-14-14-14-14------------------------------|
|------------------------12-(12)-12-12-12-12-12-12--8-|
|-(13)-12-12-12-12-12-12------------------------------|


   +S   S  S S   S  S S S   S  S S S S S S  S
|---------------------------------------------|
|---------------------------------------------|
|---------------------------------------------|
|--(7)--7--7-7---7--7-7-7---7--7-7-7-7-7-7-10-|
|--(0)--0--0-0---0--0-0-0---0--0-0-0-0-0-0----|
|-------------------------------------------8-|
|
|  +S   E.      +Q         +S  S E   Q
|---------------------------------------------|
|---------------------------------------------|
|-(10)--9-------(9)--------(9)----------------|
|---------------------------------------------|
|--(8)----------------------------------------|
|------12------(12)-------(12)----------------|


   +S   S  S  S  S  S  S S +S  S S S S S S S
|--------------------------------------------|
|--------------------------------------------|
|------------------------7-(7)-7-7-7-7-7-7---|
|-(10)-10-10-10-10-10-10-0-(0)-0-0-0-0-0-0-7-|
|------------------------------------------0-|
|--(8)--8--8--8--8--8--8---------------------|
|
|   W
|--------------------------------------------|
|--------------------------------------------|
|--------------------------------------------|
|--------------------------------------------|
|--------------------------------------------|
|--------------------------------------------|


  +S  S S S S S S S S S S S S S S  S
|------------------------------------|
|------------------------------------|
|------------------------------------|
|-(7)-7-7-7-7-7-7-7-7-7-7-7-7-7-7-10-|
|-(0)-0-0-0-0-0-0-0-0-0-0-0-0-0-0----|
|----------------------------------8-|
|
|  W
|------------------------------------|
|------------------------------------|
|------------------------------------|
|------------------------------------|
|------------------------------------|
|------------------------------------|


   +S   S  S  S  S  S  S S +S  S S S S  S S S
|---------------------------------------------|
|---------------------------------------------|
|---------------------------------------------|
|-(10)-10-10-10-10-10-10-3-(3)-3-3-3-3--3-3-7-|
|---------------------------------------------|
|--(8)--8--8--8--8--8--8-1-(1)-1-1-1-1--1-1-5-|
|
|   H                       Q        S  S E
|-----------------------------------------8---|
|--------------------------------------10-----|
|-----------------------------------------5---|
|---------------------------------------7-----|
|---------------------------------------------|
|---------------------------------------------|


  +S  S S S S S S S  S  S S S S S S S   +S  S S S S S S S +S  S S S S S S S
|-------------------------------------|-------------------------------------|
|-------------------------------------|-------------------------------------|
|-----------------------------------5-|-(5)-5-5-5-5-5-5-7-(7)-7-7-7-7-7-7---|
|-(7)-7-7-7-7-7-7-7--7--7-7-7-7-7-7---|-----------------------------------7-|
|-----------------------------------3-|-(3)-3-3-3-3-3-3-5-(5)-5-5-5-5-5-5---|
|-(5)-5-5-5-5-5-5-5--5--5-5-5-5-5-5---|-----------------------------------5-|
|
| +H                +H                   W
|-(8)---------------(8)---------------|-------------------------------------|
|-------------------------------------|-------------------------------------|
|-(5)---------------(5)---------------|-------------------------------------|
|-------------------------------------|-------------------------------------|
|-------------------------------------|-------------------------------------|
|-------------------------------------|-------------------------------------|


  +S  S S S S S S S S S S S S S S S   +S  S S S S S S S +S  S S S S  S S S
|-----------------------------------|--------------------------------------|
|-----------------------------------|--------------------------------------|
|---------------------------------5-|-(5)-5-5-5-5-5-5--------------------5-|
|-(7)-7-7-7-7-7-7-7-7-7-7-7-7-7-7---|-----------------3-(3)-3-3-3-3--3-3---|
|---------------------------------3-|-(3)-3-3-3-3-3-3--------------------3-|
|-(5)-5-5-5-5-5-5-5-5-5-5-5-5-5-5---|-----------------1-(1)-1-1-1-1--1-1---|
|
|  W                                   H                 Q        S  S S S
|-----------------------------------|----------------------------------8---|
|-----------------------------------|-------------------------------10-----|
|-----------------------------------|----------------------------------5-7-|
|-----------------------------------|--------------------------------7-----|
|-----------------------------------|------------------------------------5-|
|-----------------------------------|--------------------------------------|


  +S  S S S S S S S S S S S  S  S  S  S
|---------------------------------------|
|---------------------------------------|
|-(5)-5-5-5-5-5-5-5-5-5-5-5--7--7--7--9-|
|---------------------------------------|
|-(3)-3-3-3-3-3-3-3-3-3-3-3--5--5--5--7-|
|---------------------------------------|
|
| +S  S S S S S S S S S S S  S  S  S  S
|---------------------------------------|
|---------------------------------------|
|-(7)-9-9-9-9-9-9-9-9-9-9-9-10-10-10-10-|
|---------------------------------------|
|-(5)-7-7-7-7-7-7-7-7-7-7-7--8--8--8--8-|
|---------------------------------------|


   +S   S  S  S  S  S  S  S  +S   S  S  S  S  S  S  S
|-----------------------------------------------------|
|-----------------------------------------------------|
|--(9)--9--9--9--9--9--9-10-(10)-10-10-10-10-10-10--5-|
|-----------------------------------------------------|
|--(7)--7--7--7--7--7--7--8--(8)--8--8--8--8--8--8--3-|
|-----------------------------------------------------|
|
|  +S   S  S  S  S  S  S  S  +S   S  S  S  S  S  S  S
|-----------------------------------------------------|
|-----------------------------------------------------|
|-(10)------------------------------------------------|
|------14-14-14-14-14-14-14-(14)-12-12-12-12-12-12-12-|
|--(8)------------------------------------------------|
|------12-12-12-12-12-12-12-(12)-10-10-10-10-10-10-10-|


   +S   S  S  S  S  S  S  S  S  S  S  S  S  S  S  S
|---------------------------------------------------|
|---------------------------------------------------|
|--(5)--5--5--5--5--5--5--5--5--5--5--5--7--7--7--9-|
|---------------------------------------------------|
|--(3)--3--3--3--3--3--3--3--3--3--3--3--5--5--5--7-|
|---------------------------------------------------|
|
|  +S   S  S  S  S  S  S  S  S  S  S  S  S  S  S  S
|---------------------------------------------------|
|---------------------------------------------------|
|---------------------------------------------------|
|-(12)-14-14-14-14-14-14-14-14-14-14-14-15-15-15-15-|
|---------------------------------------------------|
|-(10)-12-12-12-12-12-12-12-12-12-12-12-13-13-13-13-|


   +S   S  S  S  S  S  S  S  +S   S  S  S  S  S  S  S
|-----------------------------------------------------|
|-----------------------------------------------------|
|--(9)--9--9--9--9--9--9-10-(10)----------------------|
|---------------------------------9--9--9--9--9--9--7-|
|--(7)--7--7--7--7--7--7--8--(8)----------------------|
|---------------------------------7--7--7--7--7--7--5-|
|
|  +S   S  S  S  S  S  S  S  +S   S  S  S  S  S  S  S
|-----------------------------------------------------|
|-----------------------------------------------------|
|------------------------14-(14)-14-14-14-14-14-14-10-|
|-(15)-14-14-14-14-14-14------------------------------|
|------------------------12-(12)-12-12-12-12-12-12--8-|
|-(13)-12-12-12-12-12-12------------------------------|


   +H.                    E S  S    +Q..   S +Q..   S
|--------------------------------|--------------------|
|--------------------------------|--------------------|
|--------------------------------|---------7-(7)------|
|--(7)------------------------10-|-(10)-------------7-|
|--------------------------------|---------5-(5)------|
|--(5)-------------------------8-|--(8)-------------5-|
|
|  +S   E.  +Q    +S  S E Q          W
|--------------------------------|--------------------|
|--------------------------------|--------------------|
|-(10)---------------------------|--------------------|
|------14--(14)--(14)------------|--------------------|
|--(8)---------------------------|--------------------|
|------12--(12)--(12)------------|--------------------|


  +H     +Q..    S    +Q..   S +Q..         S
|------------------|--------------------------|
|------------------|--------------------------|
|------------------|--------------------------|
|-(7)----(7)----10-|-(10)----3-(3)----------7-|
|------------------|--------------------------|
|-(5)----(5)-----8-|--(8)----1-(1)----------5-|
|
|  W                   H        Q    S  S E
|------------------|----------------------8---|
|------------------|-------------------10-----|
|------------------|----------------------5---|
|------------------|--------------------7-----|
|------------------|--------------------------|
|------------------|--------------------------|


  +S  S S S S S S S  S  S S S S S S S   +S  S S S S S S S +S  S S S S S S S
|-------------------------------------|-------------------------------------|
|-------------------------------------|-------------------------------------|
|-----------------------------------5-|-(5)-5-5-5-5-5-5-7-(7)-7-7-7-7-7-7---|
|-(7)-7-7-7-7-7-7-7--7--7-7-7-7-7-7---|-----------------------------------7-|
|-----------------------------------3-|-(3)-3-3-3-3-3-3-5-(5)-5-5-5-5-5-5---|
|-(5)-5-5-5-5-5-5-5--5--5-5-5-5-5-5---|-----------------------------------5-|
|
| +H                +H                   W
|-(8)---------------(8)---------------|-------------------------------------|
|-------------------------------------|-------------------------------------|
|-(5)---------------(5)---------------|-------------------------------------|
|-------------------------------------|-------------------------------------|
|-------------------------------------|-------------------------------------|
|-------------------------------------|-------------------------------------|


  +S  S S S S S S S S S S S S S S S   +S  S S S S S S S +S  S S S S S S  S
|-----------------------------------|--------------------------------------|
|-----------------------------------|--------------------------------------|
|---------------------------------5-|-(5)-5-5-5-5-5-5--------------------5-|
|-(7)-7-7-7-7-7-7-7-7-7-7-7-7-7-7---|-----------------3-(3)-3-3-3-3-3-3--5-|
|---------------------------------3-|-(3)-3-3-3-3-3-3--------------------3-|
|-(5)-5-5-5-5-5-5-5-5-5-5-5-5-5-5---|-----------------1-(1)-1-1-1-1-1-1----|
|
|  W                                   H                 Q        E   S  S
|-----------------------------------|-----------------------------------12-|
|-----------------------------------|--------------------------------------|
|-----------------------------------|--------------------------------------|
|-----------------------------------|--------------------------------------|
|-----------------------------------|--------------------------------------|
|-----------------------------------|--------------------------------------|


    S   S  S  S S S  S  S  +S   S  S  S S S  S  S
|-------------------------------------------------|
|-------------------------------------------------|
|---5---5--5--5-5-5--5--7--(7)--7--7--7-7-7--7--2-|
|---5---5--5--5-5-5--5--7--(7)--7--7--7-7-7--7--2-|
|--(3)--3--3--3-3-3--3--5--(5)--5--5--5-5-5--5--0-|
|-------------------------------------------------|
|
|  +S   S  S  S S S  S  S  +S   S  S  S S S  S  S
|-(12)-12-10-10-8-8-10-12-(12)-12-10-10-8-8-10-12-|
|-------------------------------------------------|
|-------------------------------------------------|
|-------------------------------------------------|
|-------------------------------------------------|
|-------------------------------------------------|


   +S   S  S  S S S  S  S  S  S  S  S  S  S  S  S
|-------------------------------------------------|
|-------------------------------------------------|
|--(2)--2--2--2-2-2--2--2--2--2--2--2--2--2--2--5-|
|--(2)--2--2--2-2-2--2--2--2--2--2--2--2--2--2--5-|
|--(0)--0--0--0-0-0--0--0--0--0--0--0--0--0--0--3-|
|-------------------------------------------------|
|
|  +S   S  S  S S S  S  S  S  S  S  S  S  S  S  S
|-(12)-12-10-10-8-8-10-12-12----------15-15-------|
|----------------------------13-13-15-------15-17-|
|-------------------------------------------------|
|-------------------------------------------------|
|-------------------------------------------------|
|-------------------------------------------------|


   +S   S  S  S  S  S  S  S  +S   S  S  S  S  S  S  S
|-----------------------------------------------------|
|-----------------------------------------------------|
|--(5)--5--5--5--5--5--5--7--(7)--7--7--7--7--7--7--2-|
|--(5)--5--5--5--5--5--5--7--(7)--7--7--7--7--7--7--2-|
|--(3)--3--3--3--3--3--3--5--(5)--5--5--5--5--5--5--0-|
|-----------------------------------------------------|
|
|  +S   S  S  S  S  S  S  S  +S   S  S  S  S  S  S  S
|-----------------------------------------------------|
|-(17)-17-15-15-13-13-15-17-(17)-17-15-15-13-13-15-17-|
|-----------------------------------------------------|
|-----------------------------------------------------|
|-----------------------------------------------------|
|-----------------------------------------------------|


   +S   S  S  S  S  S  S  S  S  S  S  S  S  S  S  S
|---------------------------------------------------|
|---------------------------------------------------|
|--(2)--2--2--2--2--2--2--2--2--2--2--2--2--2--2--5-|
|--(2)--2--2--2--2--2--2--2--2--2--2--2--2--2--2--5-|
|--(0)--0--0--0--0--0--0--0--0--0--0--0--0--0--0--3-|
|---------------------------------------------------|
|
|  +S   S  S  S  S  S  S  S  S  S  S  S  S  S  S  S
|---------------------------------------------------|
|-(17)-17-15-15-13-13-15-15----------------------17-|
|---------------------------16-16-17-17-------------|
|---------------------------------------19-19-19----|
|---------------------------------------------------|
|---------------------------------------------------|


   +S   S  S  S  S  S  S  S  +S   S  S  S  S  S  S  S
|-----------------------------------------------------|
|-----------------------------------------------------|
|--(5)--5--5--5--5--5--5--7--(7)--7--7--7--7--7--7--2-|
|--(5)--5--5--5--5--5--5--7--(7)--7--7--7--7--7--7--2-|
|--(3)--3--3--3--3--3--3--5--(5)--5--5--5--5--5--5--0-|
|-----------------------------------------------------|
|
|  +S   S  S  S  S  S  S  S  +S   S  S  S  S  S  S  S
|-----------------------------------------------------|
|-(17)-17-15-15-13-13-15-17-(17)-17-15-15-13-13-15-17-|
|-----------------------------------------------------|
|-----------------------------------------------------|
|-----------------------------------------------------|
|-----------------------------------------------------|


   +S   S  S  S  S  S  S  S  S  S  S  S  S  S  S  S
|---------------------------------------------------|
|---------------------------------------------------|
|--(2)--2--2--2--2--2--2--2--2--2--2--2--2--2--2--5-|
|--(2)--2--2--2--2--2--2--2--2--2--2--2--2--2--2--5-|
|--(0)--0--0--0--0--0--0--0--0--0--0--0--0--0--0--3-|
|---------------------------------------------------|
|
|  +S   S  S  S  S  S  S  S  S  S  S  S  S  S  S  S
|---------------------------------------15-15-------|
|-(17)-17-15-15-13-13-15-17-17-------15-------15-17-|
|------------------------------17-17----------------|
|---------------------------------------------------|
|---------------------------------------------------|
|---------------------------------------------------|


   +S   S  S  S  S  S  S  S  +S   S  S  S  S  S  S  S
|-----------------------------------------------------|
|-----------------------------------------------------|
|--(5)--5--5--5--5--5--5--7--(7)--7--7--7--7--7--7--2-|
|--(5)--5--5--5--5--5--5--7--(7)--7--7--7--7--7--7--2-|
|--(3)--3--3--3--3--3--3--5--(5)--5--5--5--5--5--5--0-|
|-----------------------------------------------------|
|
|  +S   S  S  S  S  S  S  S  +S   S  S  S  S  S  S  S
|-----------------------------------------------------|
|-(17)-17-15-15-13-13-15-17-(17)-17-15-15-13-13-15-17-|
|-----------------------------------------------------|
|-----------------------------------------------------|
|-----------------------------------------------------|
|-----------------------------------------------------|


   +S   S  S  S  S  S  S  S  S  S  S  S  S  S  S S
|--------------------------------------------------|
|--------------------------------------------------|
|--(2)--2--2--2--2--2--2--2--2--2--2--2--2--2--2-5-|
|--(2)--2--2--2--2--2--2--2--2--2--2--2--2--2--2---|
|--(0)--0--0--0--0--0--0--0--0--0--0--0--0--0--0-3-|
|--------------------------------------------------|
|
|  +S   S  S  S  S  S  S  S  S  S  S  S  S  S  S S
|--------------------------------------------------|
|-(17)-17-15-15-13-13-15-15------------------------|
|---------------------------16-16-17-17----------7-|
|---------------------------------------19-19-19-0-|
|--------------------------------------------------|
|--------------------------------------------------|


  +S  S S S S S S S S S S S  S  S  S  S
|---------------------------------------|
|---------------------------------------|
|-(5)-5-5-5-5-5-5-5-5-5-5-5--7--7--7--9-|
|---------------------------------------|
|-(3)-3-3-3-3-3-3-3-3-3-3-3--5--5--5--7-|
|---------------------------------------|
|
| +S  S S S S S S S S S S S  S  S  S  S
|---------------------------------------|
|---------------------------------------|
|-(7)-9-9-9-9-9-9-9-9-9-9-9-10-10-10-10-|
|-(0)-----------------------------------|
|-----7-7-7-7-7-7-7-7-7-7-7--8--8--8--8-|
|---------------------------------------|


   +S   S  S  S  S  S  S  S  +S   S  S  S  S  S  S  S
|-----------------------------------------------------|
|-----------------------------------------------------|
|--(9)--9--9--9--9--9--9-10-(10)-10-10-10-10-10-10--5-|
|-----------------------------------------------------|
|--(7)--7--7--7--7--7--7--8--(8)--8--8--8--8--8--8--3-|
|-----------------------------------------------------|
|
|  +S   S  S  S  S  S  S  S  +S   S  S  S  S  S  S  S
|-----------------------------------------------------|
|-----------------------------------------------------|
|-(10)------------------------------------------------|
|------14-14-14-14-14-14-14-(14)-12-12-12-12-12-12-12-|
|--(8)------------------------------------------------|
|------12-12-12-12-12-12-12-(12)-10-10-10-10-10-10-10-|


   +S   S  S  S  S  S  S  S  S  S  S  S  S  S  S  S
|---------------------------------------------------|
|---------------------------------------------------|
|--(5)--5--5--5--5--5--5--5--5--5--5--5--7--7--7--9-|
|---------------------------------------------------|
|--(3)--3--3--3--3--3--3--3--3--3--3--3--5--5--5--7-|
|---------------------------------------------------|
|
|  +S   S  S  S  S  S  S  S  S  S  S  S  S  S  S  S
|---------------------------------------------------|
|---------------------------------------------------|
|---------------------------------------------------|
|-(12)-14-14-14-14-14-14-14-14-14-14-14-15-15-15-15-|
|---------------------------------------------------|
|-(10)-12-12-12-12-12-12-12-12-12-12-12-13-13-13-13-|


   +S   S  S  S  S  S  S  S  +S   S  S  S  S  S  S  S
|-----------------------------------------------------|
|-----------------------------------------------------|
|--(9)--9--9--9-10-10-10-10-(10)----------------------|
|---------------------------------9--9--9--9--9--9--7-|
|--(7)--7--7--7--7--7--7--8--(8)----------------------|
|---------------------------------7--7--7--7--7--7--5-|
|
|  +S   S  S  S  S  S  S  S  +S   S  S  S  S  S  S  S
|-----------------------------------------------------|
|-----------------------------------------------------|
|------------------------14-(14)-14-14-14-14-14-14-10-|
|-(15)-14-14-14-14-14-14------------------------------|
|------------------------12-(12)-12-12-12-12-12-12--8-|
|-(13)-12-12-12-12-12-12------------------------------|


   +W                        W
|------------------------|--------------------------|
|------------------------|--------------------------|
|------------------------|--------------------------|
|--(7)-------------------|--------------------------|
|------------------------|--------------------------|
|--(5)-------------------|--------------------------|
|
|  +S   E.  +Q    +H        +Q    +S  S E Q  E S  S
|------------------------|--------------------------|
|------------------------|--------------------------|
|-(10)-------------------|--------------------------|
|------14--(14)--(14)----|-(14)--(14)------------15-|
|--(8)-------------------|--------------------------|
|------12--(12)--(12)----|-(12)--(12)------------13-|


    W                        W
|------------------------|--------------------------|
|------------------------|--------------------------|
|------------------------|--------------------------|
|------------------------|--------------------------|
|------------------------|--------------------------|
|------------------------|--------------------------|
|
|  +S   E.  +Q    +H        +Q    +S  S E Q  E S  S
|------------------------|--------------------------|
|------------------------|--------------------------|
|------------------------|--------------------------|
|-(15)-14--(14)--(14)----|-(14)--(14)------------14-|
|------------------------|--------------------------|
|-(13)-12--(12)--(12)----|-(12)--(12)------------12-|


    W             W
|-------------|---------------------|
|-------------|---------------------|
|-------------|---------------------|
|-------------|---------------------|
|-------------|---------------------|
|-------------|---------------------|
|
|  +W            +H      +Q.   S  S
|-------------|---------------------|
|-------------|---------------------|
|-------------|---------------------|
|-(14)--------|-(14)----(14)-----15-|
|-------------|---------------------|
|-(12)--------|-(12)----(12)-----13-|


    W                        H            Q  E S  S
|------------------------|---------------------------|
|------------------------|---------------------------|
|------------------------|---------------------------|
|------------------------|-----------------------10--|
|------------------------|-----------------------10--|
|------------------------|------------------------8--|
|
|  +S   E.  +Q    +H        +Q    +S  S E Q  E S  S
|------------------------|-----------------------12--|
|------------------------|---------------------------|
|------------------------|---------------------------|
|-(15)-14--(14)--(14)----|-(14)--(14)----------------|
|------------------------|---------------------------|
|-(13)-12--(12)--(12)----|-(12)--(12)----------------|


   +S   S  S  S  S  S  S  S  +S   S  S  S S S  S  S
|---------------------------------------------------|
|---------------------------------------------------|
|-------------------------7--(7)--7--7--7-7-7--7----|
|-(10)-10-10-10-10-10-10--7--(7)--7--7--7-7-7--7--7-|
|-(10)-10-10-10-10-10-10--5--(5)--5--5--5-5-5--5--7-|
|--(8)--8--8--8--8--8--8--------------------------5-|
|
|  +S   S  S  S  S  S  S  S  +S   S  S  S S S  S  S
|-(12)-12-10-10--8--8-10-12-(12)-12-10-10-8-8-10-12-|
|---------------------------------------------------|
|---------------------------------------------------|
|---------------------------------------------------|
|---------------------------------------------------|
|---------------------------------------------------|


   +S   S  S  S S S  S  S  S  S  S  S  S  S  S  S
|-------------------------------------------------|
|-------------------------------------------------|
|-------------------------------------------------|
|--(7)--7--7--7-7-7--7--7--7--7--7--7--7--7--7-10-|
|--(7)--7--7--7-7-7--7--7--7--7--7--7--7--7--7-10-|
|--(5)--5--5--5-5-5--5--5--5--5--5--5--5--5--5--8-|
|
|  +S   S  S  S S S  S  S  S  S  S  S  S  S  S  S
|-(12)-12-10-10-8-8-10-12-12----------15-15-------|
|----------------------------13-13-15-------15-17-|
|-------------------------------------------------|
|-------------------------------------------------|
|-------------------------------------------------|
|-------------------------------------------------|


   +S   S  S  S  S  S  S  S  +S   S  S  S  S  S  S  S
|-----------------------------------------------------|
|-----------------------------------------------------|
|-------------------------7--(7)--7--7--7--7--7--7----|
|-(10)-10-10-10-10-10-10--7--(7)--7--7--7--7--7--7--7-|
|-(10)-10-10-10-10-10-10--5--(5)--5--5--5--5--5--5--7-|
|--(8)--8--8--8--8--8--8----------------------------5-|
|
|  +S   S  S  S  S  S  S  S  +S   S  S  S  S  S  S  S
|-----------------------------------------------------|
|-(17)-17-15-15-13-13-15-17-(17)-17-15-15-13-13-15-17-|
|-----------------------------------------------------|
|-----------------------------------------------------|
|-----------------------------------------------------|
|-----------------------------------------------------|


   +S   S  S  S  S  S  S  S  S  S  S  S  S  S  S  S
|---------------------------------------------------|
|---------------------------------------------------|
|---------------------------------------------------|
|--(7)--7--7--7--7--7--7--7--7--7--7--7--7--7--7-10-|
|--(7)--7--7--7--7--7--7--7--7--7--7--7--7--7--7-10-|
|--(5)--5--5--5--5--5--5--5--5--5--5--5--5--5--5--8-|
|
|  +S   S  S  S  S  S  S  S  S  S  S  S  S  S  S  S
|---------------------------------------------------|
|-(17)-17-15-15-13-13-15-15----------------------17-|
|---------------------------16-16-17-17-------------|
|---------------------------------------19-19-19----|
|---------------------------------------------------|
|---------------------------------------------------|


   +S   S  S  S  S  S  S  S  +S   S  S  S  S  S  S  S
|-----------------------------------------------------|
|-----------------------------------------------------|
|-------------------------7--(7)--7--7--7--7--7--7----|
|-(10)-10-10-10-10-10-10--7--(7)--7--7--7--7--7--7--7-|
|-(10)-10-10-10-10-10-10--5--(5)--5--5--5--5--5--5--7-|
|--(8)--8--8--8--8--8--8----------------------------5-|
|
|  +S   S  S  S  S  S  S  S  +S   S  S  S  S  S  S  S
|-----------------------------------------------------|
|-(17)-17-15-15-13-13-15-17-(17)-17-15-15-13-13-15-17-|
|-----------------------------------------------------|
|-----------------------------------------------------|
|-----------------------------------------------------|
|-----------------------------------------------------|


   +S   S  S  S  S  S  S  S  S  S  S  S  S  S  S  S
|---------------------------------------------------|
|---------------------------------------------------|
|---------------------------------------------------|
|--(7)--7--7--7--7--7--7--7--7--7--7--7--7--7--7-10-|
|--(7)--7--7--7--7--7--7--7--7--7--7--7--7--7--7-10-|
|--(5)--5--5--5--5--5--5--5--5--5--5--5--5--5--5--8-|
|
|  +S   S  S  S  S  S  S  S  S  S  S  S  S  S  S  S
|---------------------------------------15-15-------|
|-(17)-17-15-15-13-13-15-17-17-------15-------15-17-|
|------------------------------17-17----------------|
|---------------------------------------------------|
|---------------------------------------------------|
|---------------------------------------------------|


   +S   S  S  S  S  S  S  S  +S   S  S  S  S  S  S  S
|-----------------------------------------------------|
|-----------------------------------------------------|
|-------------------------7--(7)--7--7--7--7--7--7----|
|-(10)-10-10-10-10-10-10--7--(7)--7--7--7--7--7--7--7-|
|-(10)-10-10-10-10-10-10--5--(5)--5--5--5--5--5--5--7-|
|--(8)--8--8--8--8--8--8----------------------------5-|
|
|  +S   S  S  S  S  S  S  S  +S   S  S  S  S  S  S  S
|-----------------------------------------------------|
|-(17)-17-15-15-13-13-15-17-(17)-17-15-15-13-13-15-17-|
|-----------------------------------------------------|
|-----------------------------------------------------|
|-----------------------------------------------------|
|-----------------------------------------------------|


   +S   S  S  S  S  S  S  S  S  S  S  S  S  S  S  S
|---------------------------------------------------|
|---------------------------------------------------|
|---------------------------------------------------|
|--(7)--7--7--7--7--7--7--7--7--7--7--7--7--7--7-10-|
|--(7)--7--7--7--7--7--7--7--7--7--7--7--7--7--7-10-|
|--(5)--5--5--5--5--5--5--5--5--5--5--5--5--5--5--8-|
|
|  +S   S  S  S  S  S  S  S  S  S  S  S  S  S  S  S
|---------------------------------------------------|
|-(17)-17-15-15-13-13-15-15-------------------------|
|---------------------------16-16-17-17-------------|
|---------------------------------------19-19-19-17-|
|---------------------------------------------------|
|------------------------------------------------15-|


   +S   S  S  S  S  S  S  S  S  S  S  S  S  S  S  S
|---------------------------------------------------|
|---------------------------------------------------|
|-------------------------------------------------7-|
|-(10)-10-10-10-10-10-10-10-10-10-10-10-10-10-10--7-|
|-(10)-10-10-10-10-10-10-10-10-10-10-10-10-10-10--5-|
|--(8)--8--8--8--8--8--8--8--8--8--8--8--8--8--8----|
|
|  +S   S  S  S  S  S  S  S  S  S  S  S  S  S  S  S
|---------------------------------------------------|
|---------------------------------------------------|
|---------------------------------------------------|
|-(17)-17-17-17-17-15-15-15-14-14-14-15-15-15-15-17-|
|---------------------------------------------------|
|-(15)-15-15-15-15-13-13-13-12-12-12-13-13-13-13-15-|


    S   S  S  S  S  S  S  S  S  S  S  S  S  S  S  S
|---------------------------------------------------|
|---------------------------------------------------|
|--(7)--7--7--7--7--7--7--7--7--7--7--7--7--7--7-10-|
|--(7)--7--7--7--7--7--7--7--7--7--7--7--7--7--7----|
|---5---5--5--5--5--5--5--5--5--5--5--5--5--5--5--8-|
|---------------------------------------------------|
|
|  +S   S  S  S  S  S  S  S  S  S  S  S  S  S  S  S
|---------------------------------------------------|
|---------------------------------------------------|
|------------------------------------------------10-|
|-(17)-17-17-17-17-15-15-15-14-14-14-10-10-10-10----|
|-------------------------------------------------8-|
|-(15)-15-15-15-15-13-13-13-12-12-12--8--8--8--8----|


    S   S  S  S  S  S  S  S   S   S S S  S  S  S  S
|---------------------------------------------------|
|---------------------------------------------------|
|--10---9--9--9--9--9--9--9---9---9-9-9--9--9--9-10-|
|---------------------------------------------------|
|---8---7--7--7--7--7--7--7---7---7-7-7--7--7--7--8-|
|---------------------------------------------------|
|
|  +S   S  S  S  S  S  S  S  +S   S S S  S  S  S  S
|---------------------------------------------------|
|-----------------------------------8-8-------------|
|-(10)------------------------------0-0-------------|
|------14-14-14-14-14-14-15-(15)-14-----14-14-14-15-|
|--(8)----------------------------------------------|
|------12-12-12-12-12-12-13-(13)-12-----12-12-12-13-|


   +S   S  S  S  S  S  S  S   S   S  S  S  S S S S
|--------------------------------------------------|
|--------------------------------------------------|
|-(10)--9--9--9--9--9--9--9---9---9--9--9--9-5-5-5-|
|------------------------------------------------5-|
|--(8)--7--7--7--7--7--7--7---7---7--7--7--7-3-3-3-|
|--------------------------------------------------|
|
|  +S   S  S  S  S  S  S  S  +S   S  S  S  S S S S
|--------------------------------------------------|
|--------------------------------------------8-8-8-|
|--------------------------------------------0-0-0-|
|-(15)-14-14-14-14-14-14-15-(15)-14-14-14-15-------|
|--------------------------------------------------|
|-(13)-12-12-12-12-12-12-13-(13)-12-12-12-13-------|


  +S  S S S S  S  S  S  S  S  S  S  S  S  S S
|---------------------------------------------|
|---------------------------------------------|
|-(5)-5-5-5-5--5--5--5--5--5--5--5--5--5--5-7-|
|-(5)-5-5-5-5--5--5--5--5--5--5--5--5--5--5-7-|
|-(3)-3-3-3-3--3--3--3--3--3--3--3--3--3--3-5-|
|---------------------------------------------|
|
| +S  S S S S  S  S  S  S  S  S  S  S  S  S S
|---------------------------------------------|
|-(8)-8-8-8-8-------------------------------8-|
|-(0)-0-0-0-0-10-10-10----------------------0-|
|----------------------14-14-14-15-15-15-15---|
|--------------8--8--8------------------------|
|----------------------12-12-12-13-13-13-13---|


  +S  S S S S  S  S  S  S  S  S  S  S  S  S  S
|----------------------------------------------|
|----------------------------------------------|
|-(7)-7-7-7-7--7--7--7--7--7--7--7--7--7--7-10-|
|-(7)-7-7-7-7--7--7--7--7--7--7--7--7--7--7----|
|-(5)-5-5-5-5--5--5--5--5--5--5--5--5--5--5--8-|
|----------------------------------------------|
|
| +S  S S S S  S  S  S  S  S  S  S  S  S  S  S
|----------------------------------------------|
|-(8)-8-8-8-8----------------------------------|
|-(0)-0-0-0-0-10-10-10----------------------10-|
|----------------------14-14-14-10-10-10-10----|
|--------------8--8--8-----------------------8-|
|----------------------12-12-12--8--8--8--8----|


    S   S  S  S  S  S  S  S   S   S S S  S  S  S  S
|---------------------------------------------------|
|---------------------------------------------------|
|--10---9--9--9--9--9--9--9---9---9-9-9--9--9--9-10-|
|---------------------------------------------------|
|---8---7--7--7--7--7--7--7---7---7-7-7--7--7--7--8-|
|---------------------------------------------------|
|
|  +S   S  S  S  S  S  S  S  +S   S S S  S  S  S  S
|---------------------------------------------------|
|-----------------------------------8-8-------------|
|-(10)------------------------------0-0-------------|
|------14-14-14-14-14-14-15-(15)-14-----14-14-14-15-|
|--(8)----------------------------------------------|
|------12-12-12-12-12-12-13-(13)-12-----12-12-12-13-|


   +S   S  S  S  S  S  S  S   S   S  S  S  S S S  S
|---------------------------------------------------|
|---------------------------------------------------|
|-(10)--9--9--9--9--9--9--9---9---9--9--9--9-5-5--5-|
|-------------------------------------------------5-|
|--(8)--7--7--7--7--7--7--7---7---7--7--7--7-3-3--3-|
|---------------------------------------------------|
|
|  +S   S  S  S  S  S  S  S  +S   S  S  S  S S S  S
|------------------------------------------------12-|
|--------------------------------------------8-8----|
|--------------------------------------------0-0----|
|-(15)-14-14-14-14-14-14-15-(15)-14-14-14-15--------|
|---------------------------------------------------|
|-(13)-12-12-12-12-12-12-13-(13)-12-12-12-13--------|


   +S   S  S  S S S  S  S  +S   S  S  S S S  S  S
|-------------------------------------------------|
|-------------------------------------------------|
|--(5)--5--5--5-5-5--5--7--(7)--7--7--7-7-7--7--2-|
|--(5)--5--5--5-5-5--5--7--(7)--7--7--7-7-7--7--2-|
|--(3)--3--3--3-3-3--3--5--(5)--5--5--5-5-5--5--0-|
|-------------------------------------------------|
|
|  +S   S  S  S S S  S  S  +S   S  S  S S S  S  S
|-(12)-12-10-10-8-8-10-12-(12)-12-10-10-8-8-10-12-|
|-------------------------------------------------|
|-------------------------------------------------|
|-------------------------------------------------|
|-------------------------------------------------|
|-------------------------------------------------|


   +S   S  S  S S S  S  S  S  S  S  S  S  S  S  S
|-------------------------------------------------|
|-------------------------------------------------|
|--(2)--2--2--2-2-2--2--2--2--2--2--2--2--2--2--5-|
|--(2)--2--2--2-2-2--2--2--2--2--2--2--2--2--2--5-|
|--(0)--0--0--0-0-0--0--0--0--0--0--0--0--0--0--3-|
|-------------------------------------------------|
|
|  +S   S  S  S S S  S  S  S  S  S  S  S  S  S  S
|-(12)-12-10-10-8-8-10-12-12----------15-15-------|
|----------------------------13-13-15-------15-17-|
|-------------------------------------------------|
|-------------------------------------------------|
|-------------------------------------------------|
|-------------------------------------------------|


   +S   S  S  S  S  S  S  S  +S   S  S  S  S  S  S  S
|-----------------------------------------------------|
|-----------------------------------------------------|
|--(5)--5--5--5--5--5--5--7--(7)--7--7--7--7--7--7--2-|
|--(5)--5--5--5--5--5--5--7--(7)--7--7--7--7--7--7--2-|
|--(3)--3--3--3--3--3--3--5--(5)--5--5--5--5--5--5--0-|
|-----------------------------------------------------|
|
|  +S   S  S  S  S  S  S  S  +S   S  S  S  S  S  S  S
|-----------------------------------------------------|
|-(17)-17-15-15-13-13-15-17-(17)-17-15-15-13-13-15-17-|
|-----------------------------------------------------|
|-----------------------------------------------------|
|-----------------------------------------------------|
|-----------------------------------------------------|


   +S   S  S  S  S  S  S  S  S  S  S  S  S  S  S  S
|---------------------------------------------------|
|---------------------------------------------------|
|--(2)--2--2--2--2--2--2--2--2--2--2--2--2--2--2--5-|
|--(2)--2--2--2--2--2--2--2--2--2--2--2--2--2--2--5-|
|--(0)--0--0--0--0--0--0--0--0--0--0--0--0--0--0--3-|
|---------------------------------------------------|
|
|  +S   S  S  S  S  S  S  S  S  S  S  S  S  S  S  S
|---------------------------------------------------|
|-(17)-17-15-15-13-13-15-15----------------------17-|
|---------------------------16-16-17-17-------------|
|---------------------------------------19-19-19----|
|---------------------------------------------------|
|---------------------------------------------------|


   +S   S  S  S  S  S  S  S  +S   S  S  S  S  S  S  S
|-----------------------------------------------------|
|-----------------------------------------------------|
|--(5)--5--5--5--5--5--5--7--(7)--7--7--7--7--7--7--2-|
|--(5)--5--5--5--5--5--5--7--(7)--7--7--7--7--7--7--2-|
|--(3)--3--3--3--3--3--3--5--(5)--5--5--5--5--5--5--0-|
|-----------------------------------------------------|
|
|  +S   S  S  S  S  S  S  S  +S   S  S  S  S  S  S  S
|-----------------------------------------------------|
|-(17)-17-15-15-13-13-15-17-(17)-17-15-15-13-13-15-17-|
|-----------------------------------------------------|
|-----------------------------------------------------|
|-----------------------------------------------------|
|-----------------------------------------------------|


   +S   S  S  S  S  S  S  S  S  S  S  S  S  S  S  S
|---------------------------------------------------|
|---------------------------------------------------|
|--(2)--2--2--2--2--2--2--2--2--2--2--2--2--2--2--5-|
|--(2)--2--2--2--2--2--2--2--2--2--2--2--2--2--2--5-|
|--(0)--0--0--0--0--0--0--0--0--0--0--0--0--0--0--3-|
|---------------------------------------------------|
|
|  +S   S  S  S  S  S  S  S  S  S  S  S  S  S  S  S
|---------------------------------------15-15-------|
|-(17)-17-15-15-13-13-15-17-17-------15-------15-17-|
|------------------------------17-17----------------|
|---------------------------------------------------|
|---------------------------------------------------|
|---------------------------------------------------|


   +S   S  S  S  S  S  S  S  +S   S  S  S  S  S  S  S
|-----------------------------------------------------|
|-----------------------------------------------------|
|--(5)--5--5--5--5--5--5--7--(7)--7--7--7--7--7--7--2-|
|--(5)--5--5--5--5--5--5--7--(7)--7--7--7--7--7--7--2-|
|--(3)--3--3--3--3--3--3--5--(5)--5--5--5--5--5--5--0-|
|-----------------------------------------------------|
|
|  +S   S  S  S  S  S  S  S  +S   S  S  S  S  S  S  S
|-----------------------------------------------------|
|-(17)-17-15-15-13-13-15-17-(17)-17-15-15-13-13-15-17-|
|-----------------------------------------------------|
|-----------------------------------------------------|
|-----------------------------------------------------|
|-----------------------------------------------------|


   +S   S  S  S  S  S  S  S  S  S  S  S  S  S  S S
|--------------------------------------------------|
|--------------------------------------------------|
|--(2)--2--2--2--2--2--2--2--2--2--2--2--2--2--2-5-|
|--(2)--2--2--2--2--2--2--2--2--2--2--2--2--2--2---|
|--(0)--0--0--0--0--0--0--0--0--0--0--0--0--0--0-3-|
|--------------------------------------------------|
|
|  +S   S  S  S  S  S  S  S  S  S  S  S  S  S  S S
|--------------------------------------------------|
|-(17)-17-15-15-13-13-15-15------------------------|
|---------------------------16-16-17-17----------7-|
|---------------------------------------19-19-19-0-|
|--------------------------------------------------|
|--------------------------------------------------|


   S  S S S S S S S S S S S  S  S  S  S
|---------------------------------------|
|---------------------------------------|
|--5--5-5-5-5-5-5-5-5-5-5-5--7--7--7--9-|
|----------------------------0--0--0----|
|--3--3-3-3-3-3-3-3-3-3-3-3--5--5--5--7-|
|---------------------------------------|
|
| +S  S S S S S S S S S S S  S  S  S  S
|---------------------------------------|
|---------------------------------------|
|-(7)-9-9-9-9-9-9-9-9-9-9-9-10-10-10-10-|
|-(0)-----------------------------------|
|-----7-7-7-7-7-7-7-7-7-7-7--8--8--8--8-|
|---------------------------------------|


   +S   S  S  S  S  S  S  S  +S   S  S  S  S  S  S  S
|-----------------------------------------------------|
|-----------------------------------------------------|
|--(9)--9--9--9--9--9--9-10-(10)-10-10-10-10-10-10--5-|
|-----------------------------------------------------|
|--(7)--7--7--7--7--7--7--8--(8)--8--8--8--8--8--8--3-|
|-----------------------------------------------------|
|
|  +S   S  S  S  S  S  S  S  +S   S  S  S  S  S  S  S
|-----------------------------------------------------|
|-----------------------------------------------------|
|-(10)------------------------------------------------|
|------14-14-14-14-14-14-14-(14)-12-12-12-12-12-12-12-|
|--(8)------------------------------------------------|
|------12-12-12-12-12-12-12-(12)-10-10-10-10-10-10-10-|


   +S   S  S  S  S  S  S  S  S  S  S  S  S  S  S  S
|---------------------------------------------------|
|---------------------------------------------------|
|--(5)--5--5--5--5--5--5--5--5--5--5--5--7--7--7--9-|
|---------------------------------------------------|
|--(3)--3--3--3--3--3--3--3--3--3--3--3--5--5--5--7-|
|---------------------------------------------------|
|
|  +S   S  S  S  S  S  S  S  S  S  S  S  S  S  S  S
|---------------------------------------------------|
|---------------------------------------------------|
|---------------------------------------------------|
|-(12)-14-14-14-14-14-14-14-14-14-14-14-15-15-15-15-|
|---------------------------------------------------|
|-(10)-12-12-12-12-12-12-12-12-12-12-12-13-13-13-13-|


   +S   S  S  S  S  S  S  S  +S   S  S  S  S  S  S  S
|-----------------------------------------------------|
|-----------------------------------------------------|
|--(9)--9--9--9--9--9--9-10-(10)----------------------|
|---------------------------------9--9--9--9--9--9-10-|
|--(7)--7--7--7--7--7--7--8--(8)----------------------|
|---------------------------------7--7--7--7--7--7--8-|
|
|  +S   S  S  S  S  S  S  S  +S   S  S  S  S  S  S  S
|-----------------------------------------------------|
|-----------------------------------------------------|
|------------------------14-(14)-14-14-14-14-14-14--7-|
|-(15)-14-14-14-14-14-14----------------------------0-|
|------------------------12-(12)-12-12-12-12-12-12----|
|-(13)-12-12-12-12-12-12------------------------------|


   +S   S  S  S  S  S  S  S  S  S  S  S  S  S  S  S
|---------------------------------------------------|
|---------------------------------------------------|
|----------------------------------------7--7--7--9-|
|-(10)-10-10-10-10-10-10-10-10-10-10-10-------------|
|----------------------------------------5--5--5--7-|
|--(8)--8--8--8--8--8--8--8--8--8--8--8-------------|
|
|   S   S  S  S  S  S  S  S  S  S  S  S  S  S  S  S
|---------------------------------------------------|
|---------------------------------------------------|
|---7---9--9--9--9--9--9--9--9--9--9--9-10-10-10-10-|
|--(0)----------------------------------------------|
|-------7--7--7--7--7--7--7--7--7--7--7--8--8--8--8-|
|---------------------------------------------------|


   +S   S  S  S  S  S  S  S  +S   S  S  S  S  S  S  S
|-----------------------------------------------------|
|-----------------------------------------------------|
|--(9)--9--9--9--9--9--9-10-(10)-10-10-10-10-10-10----|
|--------------------------------------------------10-|
|--(7)--7--7--7--7--7--7--8--(8)--8--8--8--8--8--8----|
|---------------------------------------------------8-|
|
|  +S   S  S  S  S  S  S  S  +S   S  S  S  S  S  S  S
|-----------------------------------------------------|
|-----------------------------------------------------|
|-(10)------------------------------------------------|
|------14-14-14-14-14-14-14-(14)-12-12-12-12-12-12-12-|
|--(8)------------------------------------------------|
|------12-12-12-12-12-12-12-(12)-10-10-10-10-10-10-10-|


   +S   S  S  S  S  S  S  S  S  S  S  S  S  S  S  S
|---------------------------------------------------|
|---------------------------------------------------|
|----------------------------------------7--7--7--9-|
|-(10)-10-10-10-10-10-10-10-10-10-10-10--0--0--0----|
|-------------------------------------------------7-|
|--(8)--8--8--8--8--8--8--8--8--8--8--8-------------|
|
|  +S   S  S  S  S  S  S  S  S  S  S  S  S  S  S  S
|---------------------------------------------------|
|---------------------------------------------------|
|---------------------------------------------------|
|-(12)-14-14-14-14-14-14-14-14-14-14-14-15-15-15-15-|
|---------------------------------------------------|
|-(10)-12-12-12-12-12-12-12-12-12-12-12-13-13-13-13-|


   +S   S  S  S  S  S  S  S  +S   S  S  S  S  S  S  S
|-----------------------------------------------------|
|-----------------------------------------------------|
|--(9)--9--9--9--9--9--9-10-(10)----------------------|
|---------------------------------9--9--9--9--9--9----|
|--(7)--7--7--7--7--7--7--8--(8)----------------------|
|---------------------------------7--7--7--7--7--7----|
|
|  +S   S  S  S  S  S  S  S  +S   S  S  S  S  S  S  S
|-----------------------------------------------------|
|-----------------------------------------------------|
|------------------------14-(14)-14-14-14-14-14-14-17-|
|-(15)-14-14-14-14-14-14------------------------------|
|------------------------12-(12)-12-12-12-12-12-12-15-|
|-(13)-12-12-12-12-12-12------------------------------|


  Gtr II
   +W
|---------*|
|---------*|
|-(17)----*|
|---------*|
|-(15)----*|
|---------*|
Tap to rate this tab
 
# A B C D E F G H I J K L M N O P Q R S T U V W X Y Z