Song name
# A B C D E F G H I J K L M N O P Q R S T U V W X Y Z

Plus 44 - 155 Acoustic tab

------------------------------------------------------------------------------
			155 (Acoustic) - +44
				Josh
------------------------------------------------------------------------------
Song Name:	155 (Acoustic)
Band:		+44
Tabbed by:	Josh

Tuning: Standard (EADGBe)


Intro (ACOUSTIC GUITAR 1) (2x)
|------------------------|
|-(16x)-----(16x)--------|
|--10--------6-----------|
|--10--------6-----------|
|--8---------4-----------|
|------------------------|

Verse (ACOUSTIC GUITAR 1) (2x)
|-----------------------------|
|-(16x)--(16x)--(16x)--(16x)--|
|--10-----6------10-----8-----|
|--10-----6------10-----8-----|
|--8------4------8------6-----|
|-----------------------------|

Chorus (ACOUSTIC GUITAR 1)
|-----------------------------|
|-(16x)--(16x)--(16x)--(16x)--|
|-----------------------6-----|
|---6-----5------3------6-----|
|---6-----6------3------4-----|
|---4-----3------1------------|

|----------------------------------|
|-(16x)--(16x)--(16x)--(8x)--(8x)--|
|-----------------------6----8-----|
|---6-----5------3------6----8-----|
|---6-----6------3------4----6-----|
|---4-----3------1-----------------|

Intro (ACOUSTIC GUITAR 1) (2x)
|------------------------|
|-(16x)-----(16x)--------|
|--10--------6-----------|
|--10--------6-----------|
|--8---------4-----------|
|------------------------|

Verse (ACOUSTIC GUITAR 1) (2x)
|-------------------------------------|
|-(16x)---(16x)----------------(16x)--|
|--10------6------10-10~--10~---8-----|
|--10------6------10-10~--10~---8-----|
|--8-------4------8--8~---8~----6-----|
|-------------------------------------|
*Note: Different strumming than rest of song, try to figure it out :)

Chorus (ACOUSTIC GUITAR 1)
|----------------------------|
|(16x)--(16x)--(16x)--(16x)--|
|----------------------6-----|
|--6-----5------3------6-----|
|--6-----6------3------4-----|
|--4-----3------1------------|

|-------------------------------------|
|(16x)--(16x)--(16x)--(8x)--(8x)------|
|----------------------6----8---------|
|--6-----5------3------6----8-----3~--|
|--6-----6------3------4----6-----3~--|
|--4-----3------1-----------------1~--|
*Note: Let the last note ring for a long time

Bridge (ACOUSTIC GUITAR 1)
|-------------------------------------------|
|-------------------------------------------|
|---------------------6--6-6-6--6-6--6-6-6--|
|-3--3-3-3--3--3-3-3--6--6-6-6--6-6--6-6-6--|
|-3--3-3-3--3--3-3-3--4--4-4-4--4-4--4-4-4--|
|-1--1-1-1--1--1-1-1------------------------|

Solo (ACOUSTIC GUITAR 1) (2x)
|-------------------------------|
|-------------------(8x)--(8x)--|
|-(8x)--(4x)--(4x)---6-----3----|
|--3-----6-----6-----6-----3----|
|--3-----5-----6-----4-----1----|
|--1-----3-----4----------------|

(ACOUSTIC GUITAR 2)
|-------------------------------------------------------|
|-------------------------------------------------------|
|-----5-----5-----8----6----5-----5----5----6----6----5-|
|-6-6---6-6---6-6---6-6--6-6---6-6--6-6--6-6--6-6--6-6--|
|-------------------------------------------------------|
|-------------------------------------------------------|

 -----------------------------------------------------|
 -----------------------------------------------------|
 ----5----5----8----6----5----8----8----8----8----5---|
 -6-6--6-6--6-6--6-6--6-6--6-6--6-6--6-6--6-6--6-6----|
 -----------------------------------------------------|
 -----------------------------------------------------|

Chorus (ACOUSTIC GUITAR 1)
|----------------------------|
|(16x)--(16x)--(16x)--(16x)--|
|----------------------6-----|
|--6-----5------3------6-----|
|--6-----6------3------4-----|
|--4-----3------1------------|

|----------------------------|
|(16x)--(16x)--(16x)--(16x)--|
|----------------------6-----|
|--6-----5------3------6-----|
|--6-----6------3------4-----|
|--4-----3------1------------|

Chorus (ACOUSTIC GUITAR 1)
|----------------------------|
|(16x)--(16x)--(16x)--(16x)--|
|----------------------6-----|
|--6-----5------3------6-----|
|--6-----6------3------4-----|
|--4-----3------1------------|

|-------------------------------------|
|(16x)--(16x)--(16x)--(8x)--(8x)------|
|----------------------6----8---------|
|--6-----5------3------6----8-----3~--|
|--6-----6------3------4----6-----3~--|
|--4-----3------1-----------------1~--|

(ACOUSTIC GUITAR 2)
|-------------------------------------------------------|
|-------------------------------------------------------|
|-----5-----5-----8----6----5-----5----5----6----6----5-|
|-6-6---6-6---6-6---6-6--6-6---6-6--6-6--6-6--6-6--6-6--|
|-------------------------------------------------------|
|-------------------------------------------------------|

 -----------------------------------------------------|
 -----------------------------------------------------|
 ----5----5----8----6----5----8----8----8----8----5---|
 -6-6--6-6--6-6--6-6--6-6--6-6--6-6--6-6--6-6--6-6----|
 -----------------------------------------------------|
 -----------------------------------------------------|


And that's it!
It's alot like the normal version only all acoustic, the second verse has different 
and it also has a little bridge before the solo.
Enjoy. If you find any problems email me at Josuamichnel@gmail.com
Tap to rate this tab
# A B C D E F G H I J K L M N O P Q R S T U V W X Y Z