Song name
# A B C D E F G H I J K L M N O P Q R S T U V W X Y Z

Plus 44 - Baby Come On Acoustic tab

Band: +44
Song:Baby come On
Album :When Your Heart Stops Beating

Standard tunning:EADGBe
* = Let ring

Intro riff 1:

Guitar 2:                   Guitar 1:
                 *                               
e|--5-----5--------------|       e|------------------|  
B|---6-8---6-------------|       B|------------------|
G|------7---5----6-------|       G|---5-3-7-3----5-3-|
D|------------x3---------|       D|---5-3-7-3-x2-5-3-|
A|-----------------------|       A|---3-1-5-1----3-1-|
E|-----------------------|       E|------------------|

 riff 2:

e|------------------------------------------------------------|
B|------------------------------------------------------------|
G|-----2------------------2-----------------------------------|
D|--3-3--x5-----3-x5--3-3---x5-----3-x5----5----5-/----3----3-|x2
A|----------1-1----------------1-1------3-3--3-3--/-1-1--1-1--|
E|------------------------------------------------------------|

And play riff 1 for the chorus.

riff 3:

Guitar 1:                                                                  
           
e|-------------------------------------------------------------------|       
B|-------------------------------------------------------------------|      
G|-----2-------2-----------------2-----------------------------------|      
D|--3-3--x5-3-3--x5----------3-3---x5-----3-x5----5----5-/----3----3-|x2    
A|------------------------------------1-1------3-3--3-3--/-1-1--1-1--|      
E|-------------------------------------------------------------------|      

Guitar 2:
e|------------------------| 
B|---6--x8-5--x8----------|
G|---------------7--x16---|
D|------------------------|x2
A|------------------------|
E|------------------------|


And play the Riff 1 for the chorus.

Riff 4:

Guitar 1:                         Guitar 2:

e|---------------------------|     e|---------------------|      
B|---------------------------|     B|---------------------|
G|-10-5--7---10-5--7/8-------|     G|--5---5------5---5---|
D|-10-5--7---10-5--7/8-------|x2   D|----3---3------3---3-|x4
A|-8--3--5---8--3--5/6-------|     A|---------------------|
E|---------------------------|     E|---------------------|

And play riff 1 for the chorus.
  
     *
e|---------|
B|---------|
G|--10-----|
D|--10-----|
A|--8------|
E|---------|


That's it.

Thanks to rate the tabs if you like it .
Tap to rate this tab
 
# A B C D E F G H I J K L M N O P Q R S T U V W X Y Z