Song name
# A B C D E F G H I J K L M N O P Q R S T U V W X Y Z

Plus 44 - Baby Come On Acoustic tab

Artist: Plus44 (+44)
Album : When Your Heart Stops Beating
Track: 13 (Bonus)
Tabbed by: kyledaygreenday
Email For Correcctions (kyledaygreenday@hotmail.co.uk


Intro
                                              
e|--5-----5--------------|      
B|---6-8---6-------------|   
G|------7---5----6-------|   
D|------------x3---------|  
A|-----------------------|
E|-----------------------|

Verse

e|------------------------------------------------------------|
B|------------------------------------------------------------|
G|-----2------------------2-----------------------------------|
D|--3-3--x5-----3-x5--3-3---x5-----3-x5----5----5-/----3----3-|x2
A|----------1-1----------------1-1------3-3--3-3--/-1-1--1-1--|
E|------------------------------------------------------------|

Chorus:


e|---------------------------------------------------------------------------|
B|---------------------------------------------------------------------------|
G|--5-5--5-5-5---3-3--3-3--7-7--7-7-7---3-3-3-3------------------------------|
D|--5-5--5-5-5---3-3--3-3--7-7--7-7-7---3-3-3-3--x2--------------------------|
A|--3-3--3-3-3---1-1--1-1--5-5--5-5-5---1-1-1-1------------------------------|
E|---------------------------------------------------------------------------|

e|---------------------------------------------------------------------------|
B|---------------------------------------------------------------------------|
G|--5-5--5-5-5---3-3--3-3-3-3-3-3--------------------------------------------|
D|--5-5--5-5-5---3-3--3-3-3-3-3-3--------------------------------------------|
A|--3-3--3-3-3---1-1--1-1-1-1-1-1--------------------------------------------|
E|---------------------------------------------------------------------------|

Verse

e|------------------------------------------------------------|
B|------------------------------------------------------------|
G|-----2------------------2-----------------------------------|
D|--3-3--x5-----3-x5--3-3---x5-----3-x5----5----5-/----3----3-|x2
A|----------1-1----------------1-1------3-3--3-3--/-1-1--1-1--|
E|------------------------------------------------------------|


Chorus:


e|---------------------------------------------------------------------------|
B|---------------------------------------------------------------------------|
G|--5-5--5-5-5---3-3--3-3--7-7--7-7-7---3-3-3-3------------------------------|
D|--5-5--5-5-5---3-3--3-3--7-7--7-7-7---3-3-3-3--x2--------------------------|
A|--3-3--3-3-3---1-1--1-1--5-5--5-5-5---1-1-1-1------------------------------|
E|---------------------------------------------------------------------------|

e|---------------------------------------------------------------------------|
B|---------------------------------------------------------------------------|
G|--5-5--5-5-5---3-3--3-3-3-3-3-3--------------------------------------------|
D|--5-5--5-5-5---3-3--3-3-3-3-3-3--------------------------------------------|
A|--3-3--3-3-3---1-1--1-1-1-1-1-1--------------------------------------------|
E|---------------------------------------------------------------------------|

Bridge

e|---------------------------|     e|---------------------|      
B|---------------------------|     B|---------------------|
G|-10-5--7---10-5--7/8-------|     G|--5---5------5---5---|
D|-10-5--7---10-5--7/8-------|x2   D|----3---3------3---3-|x4
A|-8--3--5---8--3--5/6-------|     A|---------------------|
E|---------------------------|     E|---------------------|

Chorus:


e|---------------------------------------------------------------------------|
B|---------------------------------------------------------------------------|
G|--5-5--5-5-5---3-3--3-3--7-7--7-7-7---3-3-3-3------------------------------|
D|--5-5--5-5-5---3-3--3-3--7-7--7-7-7---3-3-3-3--x2--------------------------|
A|--3-3--3-3-3---1-1--1-1--5-5--5-5-5---1-1-1-1------------------------------|
E|---------------------------------------------------------------------------|

e|---------------------------------------------------------------------------|
B|---------------------------------------------------------------------------|
G|--5-5--5-5-5---3-3--3-3-3-3-3-3--------------------------------------------|
D|--5-5--5-5-5---3-3--3-3-3-3-3-3--------------------------------------------|
A|--3-3--3-3-3---1-1--1-1-1-1-1-1--------------------------------------------|
E|---------------------------------------------------------------------------|
  
     *
e|---------|
B|---------|
G|--10-----|
D|--10-----|
A|--8------|
E|---------|


That's it.

Tap to rate this tab
 
# A B C D E F G H I J K L M N O P Q R S T U V W X Y Z