Song name
# A B C D E F G H I J K L M N O P Q R S T U V W X Y Z

Plus 44 - When Your Heart Stops Beating chords

Highlighted       Show chord diagrams
+44
When Your Heart Stops Beating
When Your Heart Stops Beating
2006 Interscope Records
Submitted by: paramore_fans@yahoo.com

Tuning: Standard EADGBe

Chords used:
Am - x02210
C -  x32010
G -  320003
F -  133211
Em - 022000


Intro: Am--C-G (x2)

Guitar 2:
e|-5------0----0--3---5------0----0--12----|
B|---5-------1----------5-------1-------13-|
G|------2------------------2---------------|
D|-----------------------------------------| (x2)
A|-----------------------------------------|
E|-----------------------------------------|


Verse 1:
Am
  Turn it up, I never want to go home
       C                       G
I only want to be part of your breakdown
Am
  She got caught by the fall on the floor
              C                       G
It picked her up and sheíll never get let down
          Am
And now I canít, stop, thinking about it
        C                            G
All you people at the top donít know nothing about it
Am
We donít give a fuck what the price is
        C                     G
So just leave us to our own devices And weíll leave you alone


Chorus:
F                        C
  Iíll be there when you heart stops beating
Em                        Am
  Iíll be there when your last breaths taken away
F                          C
  In the dark when thereís no one listening
Em                     Am
  In the times when we both get carried away


F-C-Em-Am

Guitar 2:
e|-12-12--------------|
B|-------13--15-15-13-|
G|--------------------|
D|--------------------| (x4)
A|--------------------|
E|--------------------|

When we both get carried away


Verse 2:
Am
  She says it all without a thought in her head
            C                          G
She says it all, and sheís pressed up against me
Am
  A little something just to take off the edge
         C                          G
A little more and Iíll fall off the planet entirely


(Repeat Chorus)


Interlude: Am--C-G (x6)

Guitar 2:
e|-----------------|
B|-1----1----1---0-|
G|-----------------|
D|---2----2----2---| (x2)
A|-----------------|
E|-----------------|


(Repeat Chorus)


Outro:
F                          C
  (Iíll be there when your heart stops beating)
Em        Am
  When we both get carried away
F                           C
  (In the dark when thereís no one listening)
Em        Am                Am(hold)
  When we both get carried away
Tap to rate this tab
 
# A B C D E F G H I J K L M N O P Q R S T U V W X Y Z