Song name
# A B C D E F G H I J K L M N O P Q R S T U V W X Y Z

Plus 44 - No It Isnt tab

Highlighted       Show chord diagrams
Artist: Plus 44
Song: No it isn't
Comments:
Good Song. Might be a bit wrong. Had to use a Nylon acoustic. It could be a Bit high.


Intro: F#m D A E (2x)

              F#m
"Please understand
                   D
This isn't just goodbye
                  A
This is "I can't stand you"
                  E
This is where the road

                  F#m
crashed into the ocean
                 D
It rises all around me
                      A
And now we're barely breathing
                            E
A thousand faces will choose to ignore


(Chorus)

Asus2		   B/G6  C7
Curse my enemies for ever. Let's slit our wrists and
 Em       Dsus2           C7
burn down something beautiful. This
    Asus2             B/G6   C7
desperation leaves me overjoyed. With fading lights that
 Em		 Dsus2             C7       B/G6
lead us pass the lives that we destroyed

(Intro)
              F#m
I listen to you cry
                  D
I cry for less attention
                  A
But both my hands are tied
                         E
And I'm pushed into the deep end

               F#m
I listen to you talk,
             D
but talk is cheap
                   A
My mouth is filled with blood
                E
from trying not to speak

                F#m
So search for an excuse,
                 D
and someone to believe you
                 A
In foreign dressing room
       E
she need to

(Chorus)

Asus2		   B/G6  C7
Curse my enemies for ever. Let's slit our wrists and
 Em       Dsus2           C7
burn down something beautiful. This
    Asus2             B/G6   C7
desperation leaves me overjoyed. With fading lights that
 Em		 Dsus2             C7       B/G6
lead us pass the lives that we destroyed

e------------------------------------------------------------------------|
b---------------------------5-----------------------------------5--------|
g---6-7-6--6-7-7-6----6-7-6--7-6-7------6-7-6--6-7-7-6----6-7-6--7-6-7---|
d------------------------------------------------------------------------|
a------------------------------------------------------------------------|
E------------------------------------------------------------------------|

e---------------------------5--------|
b-----------------------------5------|
g---6-7-6--6-7-7-6----6-7-6-----7-6--|
d------------------------------------|
a------------------------------------|
E------------------------------------|

e------------------------------------|
b---------------------------5--------|
g---6-7-6--6-7-7-6----6-7-6--7-6-7---|
d------------------------------------|
a------------------------------------|
E------------------------------------|

Please understand, this isn't just goodbye
This is I can't stand you
Tap to rate this tab
# A B C D E F G H I J K L M N O P Q R S T U V W X Y Z