Guitaretab - guitar tabs
Song name
# A B C D E F G H I J K L M N O P Q R S T U V W X Y Z

Plus 44 - Lycantrophe tab

Tabbed by: Bj0rn & Lars
Email: bjorn.fjukstad@tromso.online.no / larsemann370@gmail.com

Intro goes something like this:

Guitar 1:
e|---------------------|
B|---------------------|
G|---9-9-9-9-----------|
D|---x-x-x-x-----------|
A|---7-7-7-7-----------|
E|---------------------|

Guitar 2:
e|--------------------------------------------------------|
B|--------------------------------------------------------|
G|--7-9-9-9-9-9-9-9-9-9-9-9-9-10-9-9-9-9-9-9-9-9-9-9-9-9--|
D|--------------------------------------------------------|
A|--------------------------------------------------------|
E|--------------------------------------------------------|

Verse:
e|----------------------------|
B|----------------------------|
G|---9-9-9--7\5-5-5--7-7-7----|
D|---x-x-x--x\x-x-x--x-x-x----|
A|---7-7-7--5\3-3-3--5-5-5----|
E|----------------------------|

Ref:
Guitar 1
e|--------------------------------------|
B|--------------------------------------|
G|---5-5-5-5---7-7-7-7------------------|
D|---5-5-5-5---7-7-7-7----7-7-7-7-------|
A|---3-3-3-3---5-5-5-5----7-7-7-7-------|
E|------------------------5-5-5-5-------|

Guitar 2
e|---12-12-------------------|
B|----------15---13---15-----|
G|---------------------------| x3
D|---------------------------|
A|---------------------------|
E|---------------------------|

The fourth time you play like this
[ Tab from: http://www.guitaretab.com/p/plus-44/77863.html ]
e|---12-12--------13---12-----|
B|------------15--------------|
G|----------------------------|
D|----------------------------|
A|----------------------------|
E|----------------------------|


Then play this again

e|---12-12----------------------|
B|-------------15---13---15-----|
G|------------------------------| x2
D|------------------------------|
A|------------------------------|
E|------------------------------|

And then last time you play like this

e|---12---12-----------------------------------|
B|------------15---13---15---12---13---10------|
G|---------------------------------------------|
D|---------------------------------------------|
A|---------------------------------------------|
E|---------------------------------------------|

We haven't tabbed the bridge yet...

The last part for guitar 2
e|------------------------------------------------------------------|
B|------------------------------------------------------------------|
G|--7-9-9-9-9-9-9-9-9-9-9-9-9-10-9-9-9-9-9-9-9-9-9-9-9-9--14--17----|
D|------------------------------------------------------------------|
A|------------------------------------------------------------------|
E|------------------------------------------------------------------|


We're not saying that this is the correct way of playing it, but it is ONE way. Hope you 
this tab useful even though there are some flaws.
Related for Lycantrophe tab
Advertisement will be closed in 10 seconds