Song name
# A B C D E F G H I J K L M N O P Q R S T U V W X Y Z

Plus 44 - Broker Hearts tab

Help us improve GuitareTab! Take a short survey!
this is only the guitar that starts the song
Guitar 2 

E-------------------------------------------------------------------------|
B-------------------------------------------------------------------------|
G-----7-----------3-3-3-3-3-3---5-5-5-5-5-5-------------------------------|
D----7-7-(x2)-----3-3-3-3-3-3---5-5-5-5-5-5-------------------------------|x4
A---5---5---------1-1-1-1-1-1---3-3-3-3-3-3-------------------------------|
E-------------------------------------------------------------------------|

E-------------------------------------------------------------------------|
B-------------------------------------------------------------------------|
G--7-7---3-3---5-5--------------------------------------------------------|x2
D--7-7---3-3---5-5--------------------------------------------------------|
A--5-5---1-1---3-3--------------------------------------------------------|
E-------------------------------------------------------------------------|

I dont know if 8 is the exact number but thats how many beats at least
E------------------------------------------/------------------------------|
B-----------------------------------------/-------------------------------|
G--7--------3--------5-------------------/------------5------2------------|
D--7(x8)----3(x8)----5-(x16)------------/(3rd & 4th)--5(x8)--2(x4)--------|x4
A--5--------1--------3-----------------/--------------3------0------------|
E-------------------------------------/-----------------------------------|

E-------------------------------------------------------------------------|
B-------------------------------------------------------------------------|
G--7-7---3-3---5-5--------------------------------------------------------|x2
D--7-7---3-3---5-5--------------------------------------------------------|
A--5-5---1-1---3-3--------------------------------------------------------|
E-------------------------------------------------------------------------|

E------------------------------------------/------------------------------|
B-----------------------------------------/-------------------------------|
G--7--------3--------5-------------------/------------5------2------------|
D--7(x8)----3(x8)----5-(x16)------------/(3rd & 4th)--5(x8)--2(x4)--------|x4
A--5--------1--------3-----------------/--------------3------0------------|
E-------------------------------------/-----------------------------------|

bass part then I dont know the rest
Related for Broker Hearts tab