Song name
# A B C D E F G H I J K L M N O P Q R S T U V W X Y Z

Plus 44 - Cliff Diving tab

Cliffdiving                                            +44

INTRO:  I can't line up the two guitars but theyre at the same tempo
Guitar 1
e|-----------------------------------------------------------------------|
B|-----------------------------------------------------------------------|
G|----------------4444444444444444----------------5555555555555555-------|
D|5555555555555555444444444444444422222222222222225555555555555555-------|x2
A|5555555555555555222222222222222222222222222222223333333333333333-------|
E|3333333333333333----------------0000000000000000-----------------------|

Guitar 2
e|--------------------------------------------------------------------------|
B|--------------------------------------------------------------------------|
G|16------14-----12-----11-----12------11-----12-----9------14-----16-------|
D|xx-x8---xx-x6--xx-x8---x-x3--xx-x14---x-x3--xx-x3--x-x14--xx-x2--xx-x2----|x2
A|14------12-----1O------9-----1O-------9-----1O-----7------12-----14-------|
E|--------------------------------------------------------------------------|

VERSE:
Guitar 1
e|-----------------------------------------------------------------------|
B|-----------------------------------------------------------------------|
G|----------------4444444444444444----------------5555555555555555-------|
D|5555555555555555444444444444444422222222222222225555555555555555-------|x2
A|5555555555555555222222222222222222222222222222223333333333333333-------|
E|3333333333333333----------------0000000000000000-----------------------|

CHORUS:
Guitar 1
e|-----------------------------------------------------------------------|
B|-----------------------------------------------------------------------|
G|5----------------5----------------5------------------------------------|
D|5-5-5-22-2222222-5-5-5-22-2222222-5-5-5-22-2222222777777777-7----------|
A|3-5-5-22-2222222-3-5-5-22-2222222-3-5-5-22-2222222777777777-7----------|
E|--3-3-00-0000000---3-3-00-0000000---3-3-00-0000000555555555-5----------|

INTRO:
Guitar 1
e|-----------------------------------------------------------------------|
B|-----------------------------------------------------------------------|
G|----------------4444444444444444----------------5555555555555555-------|
D|5555555555555555444444444444444422222222222222225555555555555555-------|
A|5555555555555555222222222222222222222222222222223333333333333333-------|
E|3333333333333333----------------0000000000000000-----------------------|

Guitar 2
e|------------------------------------------------------------------------|
B|------------------------------------------------------------------------|
G|16------14-----12-----11-----12------11-----12-----9------14-----16-----|
D|xx-x8---xx-x6--xx-x8---x-x3--xx-x14---x-x3--xx-x3--x-x14--xx-x2--xx-x2--|
A|14------12-----1O------9-----1O-------9-----1O-----7------12-----14-----|
E|------------------------------------------------------------------------|

VERSE:
Guitar 1
e|-----------------------------------------------------------------------|
B|-----------------------------------------------------------------------|
G|----------------4444444444444444----------------5555555555555555-------|
D|5555555555555555444444444444444422222222222222225555555555555555-------|x2
A|5555555555555555222222222222222222222222222222223333333333333333-------|
E|3333333333333333----------------0000000000000000-----------------------|

CHORUS:
Guitar 1
e|-----------------------------------------------------------------------|
B|-----------------------------------------------------------------------|
G|5----------------5----------------5------------------------------------|
D|5-5-5-22-2222222-5-5-5-22-2222222-5-5-5-22-22222227777777777777777-7---|
A|3-5-5-22-2222222-3-5-5-22-2222222-3-5-5-22-22222227777777777777777-7---|
E|--3-3-00-0000000---3-3-00-0000000---3-3-00-00000005555555555555555-5---|

CHORUS pt.2:
Guitar 1
e|-----------------------------------------------------------------------|
B|-----------------------------------------------------------------------|
G|55---------------55---------------55-----------------------------------|
D|55555522-2222222-55555522-2222222-555555-22-2222222777777777-7---------|
A|33555522-2222222-33555522-2222222-335555-22-2222222777777777-7---------|
E|--333300-0000000---333300-0000000---3333-00-0000000555555555-5---------|

Guitar 2
e|-----------------------------------------------------------------------|
B|-----------------------------------------------------------------------|
G|12-----------------------------------------------------------12~~~~----|
D|xx x56-----------------------------------------------------------------|
A|10---------------------------------------------------------------------|
E|-----------------------------------------------------------------------|

INTERLUDE: theyre the same tempo but i cant line them up
Guitar 1
e|-------------------------------------------------------------|
B|-------------------------------------------------------------|
G|------------------------55555555-----------------------------|
D|55555555555555552222222255555555-----------------------------|
A|55555555555555552222222233333333-----------------------------|
E|333333333333333300000000-------------------------------------|

Guitar 2
e|-------------------------------------------------------------|
B|-------------------------------------------------------------|
G|14141416161616161611112121212151515161616161616111121212-----|
D|-x-x-x-x-x-x-x-x-xxxx-x-x-x-x-x-x-x-x-x-x-x-x-xxxx-x-x-x-----|
A|12121214141414141499910101010131313141414141414999101010-----|
E|-------------------------------------------------------------|

Guitar 1
e|-------------------------------------------------------------|
B|-------------------------------------------------------------|
G|------------------------55555555-----------------------------|
D|55555555555555552222222255555555-----------------------------|
A|55555555555555552222222233333333-----------------------------|
E|333333333333333300000000-------------------------------------|

Guitar 2
e|-------------------------------------------------------------------|
B|-------------------------------------------------------------------|
G|-14------14-------12-------12------14------14-------12-------12----|
D|-----12------12-------12-------12------12------12--------12------12|
A|-------------------------------------------------------------------|
E|-------------------------------------------------------------------|

Guitar 1
e|-------------------------------------------------------------|
B|-------------------------------------------------------------|
G|------------------------55555555-----------------------------|
D|55555555555555552222222255555555-----------------------------|
A|55555555555555552222222233333333-----------------------------|
E|333333333333333300000000-------------------------------------|

Guitar 2
e|-------------------------------------------------------------------------------------------|
B|-------------------------------------------------------------------------------------------|
G|14-14-14-16-16-16-16-16-16-11-11-11-12-12-12-14-14-14-16-16-16-16-16-16-11-11-11-12-12-12--|
D|-------------------------------------------------------------------------------------------|
A|-------------------------------------------------------------------------------------------|
E|-------------------------------------------------------------------------------------------|
Guitar 1
e|-------------------------------------------------------------|
B|-------------------------------------------------------------|
G|------------------------5------------------------------------|
D|5555555555555555222222225------------------------------------|
A|5555555555555555222222223------------------------------------|
E|333333333333333300000000-------------------------------------|

Guitar 2
e|-------------------------------------------------------------------------|
B|-------------------------------------------------------------------------|
G|-14------14-------12-------12------14------14--12-12-12-12-12-12-12-12---|
D|-----12------12-------12-------12------12--------------------------------|
A|-------------------------------------------------------------------------|
E|-------------------------------------------------------------------------|

CHORUS:
Guitar 1
e|-----------------------------------------------------------------------|
B|-----------------------------------------------------------------------|
G|5----------------5----------------5------------------------------------|
D|5-5-5-22-2222222-5-5-5-22-2222222-5-5-5-22-22222227777777777777777-7---|
A|3-5-5-22-2222222-3-5-5-22-2222222-3-5-5-22-22222227777777777777777-7---|
E|--3-3-00-0000000---3-3-00-0000000---3-3-00-00000005555555555555555-5---|

CHORUS pt.2:
Guitar 1
e|-----------------------------------------------------------------------|
B|-----------------------------------------------------------------------|
G|55---------------55---------------55-----------------------------------|
D|55555522-2222222-55555522-2222222-555555-22-2222222777777777-7---------|
A|33555522-2222222-33555522-2222222-335555-22-2222222777777777-7---------|
E|--333300-0000000---333300-0000000---3333-00-0000000555555555-5---------|

Guitar 2
e|-----------------------------------------------------------------------|
B|-----------------------------------------------------------------------|
G|12-----------------------------------------------------------12~~~~----|
D|xx x56-----------------------------------------------------------------|
A|10---------------------------------------------------------------------|
E|-----------------------------------------------------------------------|

INTERLUDE:
Guitar 1
e|-------------------------------------------------------------|
B|-------------------------------------------------------------|
G|------------------------55555555-----------------------------|
D|55555555555555552222222255555555-----------------------------|
A|55555555555555552222222233333333-----------------------------|
E|333333333333333300000000-------------------------------------|

Guitar 2
e|-------------------------------------------------------------|
B|-------------------------------------------------------------|
G|14141416161616161611112121212151515161616161616111121212-----|
D|-x-x-x-x-x-x-x-x-xxxx-x-x-x-x-x-x-x-x-x-x-x-x-xxxx-x-x-x-----|
A|12121214141414141499910101010131313141414141414999101010-----|
E|-------------------------------------------------------------|

Guitar 1
e|-------------------------------------------------------------|
B|-------------------------------------------------------------|
G|------------------------55555555-----------------------------|
D|55555555555555552222222255555555-----------------------------|
A|55555555555555552222222233333333-----------------------------|
E|333333333333333300000000-------------------------------------|

Guitar 2
e|-------------------------------------------------------------------|
B|-------------------------------------------------------------------|
G|-14------14-------12-------12------14------14-------12-------12----|
D|-----12------12-------12-------12------12------12--------12------12|
A|-------------------------------------------------------------------|
E|-------------------------------------------------------------------|

Guitar 1
e|-------------------------------------------------------------|
B|-------------------------------------------------------------|
G|------------------------55555555-----------------------------|
D|55555555555555552222222255555555-----------------------------|
A|55555555555555552222222233333333-----------------------------|
E|333333333333333300000000-------------------------------------|

Guitar 2
e|-------------------------------------------------------------------------------------------|
B|-------------------------------------------------------------------------------------------|
G|14-14-14-16-16-16-16-16-16-11-11-11-12-12-12-14-14-14-16-16-16-16-16-16-11-11-11-12-12-12--|
D|-------------------------------------------------------------------------------------------|
A|-------------------------------------------------------------------------------------------|
E|-------------------------------------------------------------------------------------------|
Guitar 1
e|-------------------------------------------------------------|
B|-------------------------------------------------------------|
G|------------------------5------------------------------------|
D|5555555555555555222222225------------------------------------|
A|5555555555555555222222223------------------------------------|
E|333333333333333300000000-------------------------------------|

Guitar 2
e|-------------------------------------------------------------------------|
B|-------------------------------------------------------------------------|
G|-14------14-------12-------12------14------14--12-12-12-12-12-12-12-12---|
D|-----12------12-------12-------12------12--------------------------------|
A|-------------------------------------------------------------------------|
E|-------------------------------------------------------------------------|

Guitar 2
e|-------------------------------------------------------------------------------------------|
B|-------------------------------------------------------------------------------------------|
G|14-14-14-16-16-16-16-16-16-11-11-11-12-12-12-14-14-14-16-16-16-16-16-16-11-11-11-12-12-12--|
D|-------------------------------------------------------------------------------------------|
A|-------------------------------------------------------------------------------------------|
E|-------------------------------------------------------------------------------------------|
Guitar 1
e|-------------------------------------------------------------|
B|-------------------------------------------------------------|
G|------------------------5------------------------------------|
D|5555555555555555222222225------------------------------------|
A|5555555555555555222222223------------------------------------|
E|333333333333333300000000-------------------------------------|

Guitar 2
e|-------------------------------------------------------------------------|
B|-------------------------------------------------------------------------|
G|-14------14-------12-------12------14------14--12-12-12-12-12-12-12-12---|
D|-----12------12-------12-------12------12--------------------------------|
A|-------------------------------------------------------------------------|
E|-------------------------------------------------------------------------|
Tap to rate this tab
# A B C D E F G H I J K L M N O P Q R S T U V W X Y Z