Guitaretab - guitar tabs
Song name
# A B C D E F G H I J K L M N O P Q R S T U V W X Y Z

Plus 44 - Weatherman Acoustic tab

Weatherman Acoustic Tabs
Tabbed by: Tom Lee
Tuning: Standard
This is the first tab for this song I think so correct me if Im wrong. This is what Ive 
out oki =) Enjoy!


1st Guitar

Throughout the whole song

e|-------|
B|-------|
G|-2-----|
D|-2---3-|
A|-0---3-|
E|-----1-| or you can use:


e|-0---0-|
B|-0---0-|
G|-2---0-|
D|-2---3-|
A|-0---3-| It sounds nice with open strings too.
E|-0---1-| Or you can switch between them.


Theres also this weird bass synth type thing or summit that goes:

e|---------|
B|---------|
G|---------|
D|---------|
A|-0-------|
E|-----1-3-| The 3 is optional, I just like to use it =]


2nd Guitar

Intro/Verse 1

e|-----0-------|
B|---1-------3-|
G|-2-----------|
D|-------------|
A|-------------|
E|-------------|


1st Chorus

e|-0---0---0---1-0-    -0---0---0-0-----------|
B|-----------1-----    --1-1-1-1----3-3-1-1-0-|
G|----------------- x3 -----------------------|
D|-----------------    -----------------------|
A|-----------------    -----------------------|
E|-----------------    -----------------------|
PM           .                       . . . .

Im not entirely sure about the palm muted 1's but I do it anyway.
Also I like to bend the strings at the end of the chorus.


Verse 2

e|------------------3---------------------|
B|-1---3-----1---3-----1---3-----1---3----|
G|--------------------------------------0-|
D|----------------------------------------| x4
A|----------------------------------------|
E|----------------------------------------|


2nd Chorus
[ Tab from: http://www.guitaretab.com/p/plus-44/80686.html ]
e|-0---0---0---1-0-          -0---0---0-0-----------|
B|--1-1-1-1--1-----          --1-1-1-1----3-3-1-1-0-|
G|-----------------          -----------------------|
D|----------------- x3 then: -----------------------| Both x2
A|-----------------          -----------------------|
E|-----------------          -----------------------|

This time you can hear the ones more clearly.
You dont have to palm mute it but you can if you want to.


Interlude

e|------------------------------------------------------------------|
B|------0--1--0-----------------------------0--1--0-----------------|
G|-2-----------------------0--2--------2-----------------------0--2-|
D|----2----------2----------------3-------2----------2--------------|
A|----------------------3-----------3-----------------------3-------|
E|------------------1-1---------------------------------1-1---------|


3rd Chorus

e|-0---0---0---1-0-          -0---0---0-0-----------|
B|--1-1-1-1--1-----          --1-1-1-1----3-3-1-1-0-|
G|-----------------          -----------------------|
D|----------------- x3 then: -----------------------|
A|-----------------          -----------------------|
E|-----------------          -----------------------|

You carry this on till the end.


3rd Guitar

3rd Chorus

e|------------------3---------------------|
B|-1---3-----1---3-----1---3-----1---3----|
G|--------------------------------------0-|
D|----------------------------------------|
A|----------------------------------------|
E|----------------------------------------|

Start this the second time on the 3rd Chorus till the end.
Related for Weatherman Acoustic tab
×
Best way to learn
"Weatherman Acoustic"