Song name
# A B C D E F G H I J K L M N O P Q R S T U V W X Y Z

Plus 44 - Lilian tab

Tabbed By: "hillcrestavenue"
Band: Plus 44
Song: Lillian


               Intro: 2x's
                
e|---0-----------0-------0---------------------|
b|--1-1---------1-1------1---------------------|
g|-2---2-------2---2-----2--ring out-----------|
d|3-----------3----------2---------------------|
a|-----------------------0---------------------|
e|---------------------------------------------|


                Verse:

e|---0------0----------0------0----------------|
b|--1-1----1-1--------1-1----1-1---------------|
g|-2---2--2---2------2---2--2---2--------------|
d|3------3-------------------------------------|
a|------------------0------0-------------------|
e|---------------------------------------------|


e|---0------0----------0-------3-3-2-0---------|
b|--1-1----1-1--------1-1----------------------|
g|-2---2--2---2------2---2---2-----------------|
d|3------3-------------------------------------|
a|------------------0-------0------------------|
e|---------------------------------------------|


                Chorus: 4x's

e|---------------------------------------------|
b|---------------------------------------------|
g|-7777777777777777-55555555-------------------|
d|-7777777777777777-55555555-55555555----------|
a|-5555555555555555-33333333-55555555----------|
e|---------------------------33333333----------|

                Intro: 2x's
                
e|---0-----------0-------0---------------------|
b|--1-1---------1-1------1---------------------|
g|-2---2-------2---2-----2--ring out-----------|
d|3-----------3----------2---------------------|
a|-----------------------0---------------------|
e|---------------------------------------------|

                 Verse:

e|---0------0----------0------0----------------|
b|--1-1----1-1--------1-1----1-1---------------|
g|-2---2--2---2------2---2--2---2--------------|
d|3------3-------------------------------------|
a|------------------0------0-------------------|
e|---------------------------------------------|


e|---0------0----------0-------3-3-2-0---------|
b|--1-1----1-1--------1-1----------------------|
g|-2---2--2---2------2---2---2-----------------|
d|3------3-------------------------------------|
a|------------------0-------0------------------|
e|---------------------------------------------|

                 Chorus: 4x's

e|---------------------------------------------|
b|---------------------------------------------|
g|-7777777777777777-55555555-------------------|
d|-7777777777777777-55555555-55555555----------|
a|-5555555555555555-33333333-55555555----------|
e|---------------------------33333333----------|


                  Bridge: 6x's

e|---------------------------------------------|
b|---------------------------------------------|
g|-5555555555-555-222222-----------------------|
d|-5555555555-555-222222-333333----------------|
a|-3333333333-222-000000-333333----------------|
e|-----------------------111111----------------|

                  Chorus: 4x's

e|---------------------------------------------|
b|---------------------------------------------|
g|-7777777777777777-55555555-------------------|
d|-7777777777777777-55555555-55555555----------|
a|-5555555555555555-33333333-55555555----------|
e|---------------------------33333333----------|





                   
Tap to rate this tab
# A B C D E F G H I J K L M N O P Q R S T U V W X Y Z