Guitaretab - guitar tabs
Song name
# A B C D E F G H I J K L M N O P Q R S T U V W X Y Z

Plus 44 - We Know The Way tab

Plus-44 
We Know The Way 
 
 
Guitar I 
Riff 1  
e|-----------------------------------------------------| 
b|-----------------------------------------------------| 
g|----------2-2-------------------------3-3-x-x--------| >> 6x 
d|----------2-2-----------3-3-----------5-5-x-x---5-5--| 
a|--3-2-0---0-0---3-2-0---3-3---3-2-0---5-5-x-x---5-5--| 
e|--------3-------------3-1-1---------3-----------3-3--| 
 
 
Guitar II 
(entra quando comeša a 3x do riff 1) - - - (00:10) 
e|-------0------------------------------| 
b|-1-0-1---1-0-1----1-1-0--1-1-3--1-0---| 
g|---------------0--------------------2~| >> 4x 
d|--------------------------------------| 
a|--------------------------------------| 
e|--------------------------------------| 
 
 
Guitar I 
Riff 1 
(quando a voz entra ?facinating...?)? - - - - (00:26) 
e|-----------------------------------------------------| 
b|-----------------------------------------------------| 
g|----------2-2-------------------------3-3-x-x--------| >> 8x 
d|----------2-2-----------3-3-----------5-5-x-x---5-5--| 
a|--3-2-0---0-0---3-2-0---3-3---3-2-0---5-5-x-x---5-5--| 
e|--------3-------------3-1-1---------3-----------3-3--| 
 
 
Guitar II 
(entra quando termina a 4x do riff 1) - - - - - (00:43) 
e|----------------------------| 
b|----------------------------| 
g|-------------5-5-x-x--------| >> 4x 
d|-7-7---3-3---5-5-x-x---5-5--| 
a|-7-7---3-3---3-3-x-x---5-5--| 
e|-5-5---1-1-------------3-3--| 
 
 
Chorus: as 2 guitars 
?We know the way..? - - - - - (01:00) 
e|-------||-------------------------| 
b|-------||-------------------------| 
g|-------||---------5-5-------------| >> 4x 
d|-5~~---||---7-7---5-5---5-5...----| 
a|-5~~---||---7-7---3-3---5-5...----| 
e|-3~~---||---5-5---------3-3...----| 
 
 
Guitar I 
Riff 1 - - - - - (01:17) 
e|-----------------------------------------------------| 
b|-----------------------------------------------------| 
g|----------2-2-------------------------3-3-x-x--------| >> 4x 
d|----------2-2-----------3-3-----------5-5-x-x---5-5--| 
a|--3-2-0---0-0---3-2-0---3-3---3-2-0---5-5-x-x---5-5--| 
e|--------3-------------3-1-1---------3-----------3-3--| 
 
 
Guitar II 
- - - - - - - (01:17) 
e|-------0------------------------------| 
b|-1-0-1---1-0-1----1-1-0--1-1-3--1-0---| 
g|---------------0--------------------2~| >> 4x 
d|--------------------------------------| 
a|--------------------------------------| 
e|--------------------------------------| 
 
 
Guitar I 
Riff 1 - - - - - - (01:34) 
e|-----------------------------------------------------| 
b|-----------------------------------------------------| 
g|----------2-2-------------------------3-3-x-x--------| >> 8x 
d|----------2-2-----------3-3-----------5-5-x-x---5-5--| 
a|--3-2-0---0-0---3-2-0---3-3---3-2-0---5-5-x-x---5-5--| 
e|--------3-------------3-1-1---------3-----------3-3--| 
 
 
Guitar II 
- - - - - - - - (01:34) 
e|----------------------------| 
b|----------------------------| 
g|-------------5-5-x-x--------| >> 8x 
d|-7-7---3-3---5-5-x-x---5-5--| 
a|-7-7---3-3---3-3-x-x---5-5--| 
e|-5-5---1-1-------------3-3--| 
 
 
 
Chorus: as 2 guitars 
?We know the way..? - - - - - - (02:07) 
e|-------||-------------------------| 
b|-------||-------------------------| 
g|-------||---------5-5-------------| >> 4x 
d|-5~~---||---7-7---5-5---5-5...----| 
a|-5~~---||---7-7---3-3---5-5...----| 
e|-3~~---||---5-5---------3-3...----| 
 
 
 
As 2 guitars juntas - - - - - - (02:24) 
e|-----------------------------| 
b|-----------------------------|  
g|-----------5~----------------| >> 4x 
d|---7-7-x---5~----7-7-x---5~--|  
a|---7-7-x---3~----7-7-x---5~--|  
e|---5-5-x---------5-5-x---3~--|  
 
 
 
Chorus: as 2 guitars 
?cuz we know the way..? - - - - - - (02:43) 
e|-------||-------------------------| 
b|-------||-------------------------| 
g|-------||---------5-5-------------| >> 4x 
d|-5~~---||---7-7---5-5---5-5...----| 
a|-5~~---||---7-7---3-3---5-5...----| 
e|-3~~---||---5-5---------3-3...----| 
 
 
Guitar I 
Riff - - - - - - - (03:00) 
e|-----------------------------------------------------| 
b|-----------------------------------------------------| 
g|----------2-2-------------------------3-3-x-x--------| >> 4x 
d|----------2-2-----------3-3-----------5-5-x-x---5-5--| 
a|--3-2-0---0-0---3-2-0---3-3---3-2-0---5-5-x-x---5-5--| 
e|--------3-------------3-1-1---------3-----------3-3--| 
 
 
Guitar II 
 - - - (03:00) 
e|----------------------------| 
b|----------------------------| 
g|-------------5-5-x-x--------| >> 4x 
d|-7-7---3-3---5-5-x-x---5-5--| 
a|-7-7---3-3---3-3-x-x---5-5--| 
e|-5-5---1-1-------------3-3--| 
 
deixa soar atÚ o Chorus 
d||5~~----| 
a||5~~----|  >>> (03:17) 
e||5~~----| 
 
 
 
- Chorus ?  - - - - - (03:23) 
 
 
 
Final - - - - - - - - (03:40) 
e||------------------------| 
b||------------------------| 
g||----------5-5-x---------| >> 4x 
d||---7-7 x--5-5-x?-5~~----| 
a||---7-7-x--3-3-x--5~~----| 
e||---5-5-x---------5~~----| 

by dream_healer
[ Tab from: http://www.guitaretab.com/p/plus-44/86234.html ]
Related for We Know The Way tab