Guitaretab - guitar tabs
Song name
# A B C D E F G H I J K L M N O P Q R S T U V W X Y Z

Plus 44 - Make You Smile Acoustic tab

x = mute a string
* = harmonic


Drop D tuning. This is how I play it with one guitar, you can do strumming/picking
yourself!


e|-----------------------------------------------------------------|
B|-----------------------------------------------------------------|
G|-7-----------------7-------------------7-------------------------|
D|-7-----------------7-------------------7-------------------------|
A|-5-----------------x-------------------x-------------------------|
D|-0-----------------7-------------------5-------------------------|
   The first time I saw you, you turned away, I couldn't see with the sun shining in my eyes


Jus like that through verses, and do the same for the break between first and second verse,
but I just picked the chords a bit.

Then the Chorus is:
[ Tab from: http://www.guitaretab.com/p/plus-44/89977.html ]
e|-----------------------------------------------------------------|
B|-----------------------------------------------------------------|
G|-7-----------------7-------------------7-------------------------|
D|-7-----------------7-------------------7-------------------------|
A|-5-----------------x-------------------x-------------------------|
D|-0-----------------7-------------------5-------------------------|
   I                Dont                 Dont wanna take you home
   PLease           Dont                 Dont make me sleep alone, if


e|---------------------------------------------------------------------------|
B|-(0)-----------------------------------------------------------------------|
G|-(0)---------------7-------------------7--------------7---------------7--H-|
D|-2-----------------7-------------------7--------------7---------------7--O-|
A|-2-----------------x-------------------5--------------x---------------x--L-|
D|-2-----------------5-------------------0--------------7---------------5--D-|
   I                Could              I'd only        wanna make you smile,

e|---------------------------------------------|
B|---------------------------------------------|
G|----------------------------------5----------|
D|----------------------------------5----------|
A|----------------------------------7----------|
D|----------------------------------0----------|
   If you will then stay with me a while

--INTERLUDE--

e|-------------------------------------|
B|-7*------------7*------------7*------|
G|----7*-------7*---5*-7*----7*--------|
D|-------7*--7*------------7*----------|
A|----0-------------0------------------|
D|-0-----5-------0-----5---------------|


Rest of song is same. Up to you how you strum/pick or whatever.
Related for Make You Smile Acoustic tab
×
Best way to learn
"Make You Smile Acoustic"