Song name
# A B C D E F G H I J K L M N O P Q R S T U V W X Y Z

Plus 44 - Guten Tag tab

-----------------------------------------------------------------
Guten Tag - Plus 44
-----------------------------------------------------------------
Tabbed by: Bair
Email: bair_morritt@hotmail.com

Tuning: Standard

Riff 1:
e|------------------------------------------|
B|------------------------------------------|
G|------------------------------------------|
D|----0-2---2-3-5-7-9-10--REPEAT------------|
A|--3-----3---------------------------------|
E|------------------------------------------|

Verse/ Chorus 1:
e|------------------------------------------|
B|------------------------------------------|
G|--5555555555555---------------------------|
D|--5555555555555—-333333333333--REPEAT-----|
A|--3333333333333--333333333333-------------|
E|-----------------111111111111-------------|
“ My voice screaming through....”
“ Guten Tag Guten Tag....”

Riff 2:
e|------------------------------------------|
B|------------------------------------------|
G|------------------------------------------|
D|----1-3---3-4-6-8-10-11--REPEAT-----------|
A|--4-----4---------------------------------|
E|------------------------------------------|

Verse/ Chorus 2:
e|------------------------------------------|
B|------------------------------------------|
G|--666666666666----------------------------|
D|--666666666666--444444444444--REPEAT------|
A|--444444444444--444444444444--------------|
E|----------------222222222222--------------|
“My voice coming at you....”
“ Guten Tag Guten Tag....”

Interlude:
e|------------------------------------------------|
B|------------------------------------------------|
G|---66666666--44444444--22222222-----------------|
D|---66666666--44444444--22222222--55555555—(X2)--|
A|---44444444--22222222--00000000--55555555-------|
E|---------------------------------33333333-------|

Riff 3:
e|------------------------------------------|
B|------------------------------------------|
G|------------------------------------------|
D|---0-2-4-0-4-5-7-9-12-13--REPEAT----------|
A|------------------------------------------|
E|------------------------------------------|

Verse/ Chorus 3:
e|------------------------------------------|
B|------------------------------------------|
G|--777777777777----------------------------|
D|--777777777777--555555555555--REPEAT------|
A|--555555555555--555555555555--------------|
E|----------------333333333333--------------|
“It was a sale at an offer....”
“ Guten Tag Guten Tag....”

End on a A
Tap to rate this tab
# A B C D E F G H I J K L M N O P Q R S T U V W X Y Z