Song name
# A B C D E F G H I J K L M N O P Q R S T U V W X Y Z

Plus One - Start To Fly tab

Title: Start to Fly
Album: Obvious
Artist: Plus One
Tabbed by: Morgan Harper
Email: 1racecar1racecar1@gmail.com
AIM: calirepublican45

Tuning: EADGBe

INTRO

e---------------------------------------------------------------------|
B---------------------------------------------------------------------|
G-99--7--99--99------9------------------------------------------------|
D-99--7--99--99----9---5-8-7------------------------------------------|
A-77--5--77--77--7------------7-10-12-10------------------------------|
E---------------------------------------------------------------------|

VERSE(16X)
Believe it or not, but this is actually all the guitar is doing the whole
verse. There is an alteranate, but if you can't figure it out just email
me and I'll send it to you.

e-5-------------------------------------------------------------------|
B-5-------------------------------------------------------------------|
G-56------------------------------------------------------------------|
D-57------------------------------------------------------------------|
A-57------------------------------------------------------------------|
E-5-------------------------------------------------------------------|

PRE CHORUS (2X)
e---------------------------------------------------------------------|
B---------------------------------------------------------------------|
G-99--7--5------------------------------------------------------------|
D-77--7--5------------------------------------------------------------|
A-77--5--3------------------------------------------------------------|
E---------------------------------------------------------------------|

CHORUS(2X)
e---------------------------------------------------------------------|
B---------------------------------------------------------------------|
G-9999--5555----------------------------------------------------------|
D-9999--5555--5555--9999----------------------------------------------|
A-7777--3333--5555--9999----------------------------------------------|
E-----------------3333--7777------------------------------------------|

VERSE(16X)

e-5-------------------------------------------------------------------|
B-5-------------------------------------------------------------------|
G-56------------------------------------------------------------------|
D-57------------------------------------------------------------------|
A-57------------------------------------------------------------------|
E-5-------------------------------------------------------------------|

PRE CHORUS (2X)
e---------------------------------------------------------------------|
B---------------------------------------------------------------------|
G-99--7--5------------------------------------------------------------|
D-77--7--5------------------------------------------------------------|
A-77--5--3------------------------------------------------------------|
E---------------------------------------------------------------------|


CHORUS(2X)
e---------------------------------------------------------------------|
B---------------------------------------------------------------------|
G-9999--5555----------------------------------------------------------|
D-9999--5555--5555--9999----------------------------------------------|
A-7777--3333--5555--9999----------------------------------------------|
E-----------------3333--7777------------------------------------------|

BRIDGE(4X)
e---------------------------------------------------------------------|
B---------------------------------------------------------------------|
G-9999--5555----------------------------------------------------------|
D-9999--5555--5555--9999----------------------------------------------|
A-7777--3333--5555--9999----------------------------------------------|
E-----------------3333--7777------------------------------------------|

CHORUS(2X)
e---------------------------------------------------------------------|
B---------------------------------------------------------------------|
G-9999--5555----------------------------------------------------------|
D-9999--5555--5555--9999----------------------------------------------|
A-7777--3333--5555--9999----------------------------------------------|
E-----------------3333--7777------------------------------------------|

Any questions? email me.
Tap to rate this tab
# A B C D E F G H I J K L M N O P Q R S T U V W X Y Z