Song name
# A B C D E F G H I J K L M N O P Q R S T U V W X Y Z

Plush - Halo tab

-------------------------------------------------------------------------------
			         HALO - Plush
-------------------------------------------------------------------------------
Tabbed by: SkinnyJeans17
Email: chan0610@gmail.com

Tuning: Standard

Ive been looking for the tab for this song everywhere but it doesnt seem to
exist so I thought Id tab it out for everyone who is in the same situation as
me. Its extremely easy, just listen to the song while you play and youll pick
up the rhythm in no time. I used a lesson done by Rory Eliot himself (Plushs
lead singer) on his Youtube channel to help me along so Im sure its 
as accurate as possible. 

Heres the link - http://www.youtube.com/watch?v=koTw2HKmAsk.


--------
 Chords:
--------

    C#     A     B     E     C#m     Low E     Bm   
e|---------0-----0-----0-----0--------0---------2----------------------------|
B|--2------0-----0-----0-----5--------0---------3----------------------------|
G|--8------6-----8-----9-----6--------2---------4----------------------------|
D|--6------7-----9-----9-----6--------2---------4----------------------------|
A|--4------7-----9-----7-----4--------1---------2----------------------------|
E|---------5-----7-----0-----0------------------2----------------------------|


--------
 Intro:
--------

  C#                     A 
e|-----------------------------0-------0-------------------------------------|
B|-------2-------2-------------0-------0-------------------------------------|
G|-----8-------8---8---8-------6-------6-------------------------------------|
D|---6-------6-------6-------7-------7---------------------------------------|
A|-4-------4---------------7-------7-----------------------------------------|
E|-----------------------5-------5-------------------------------------------| 


-------
 Verse:
-------

  C#                     A 
e|-----------------------------0-------0-------------------------------------|
B|-------2-------2-------------0-------0-------------------------------------|
G|-----8-------8---8---8-------6-------6-------------------------------------|
D|---6-------6-------6-------7-------7---------------------------------------|
A|-4-------4---------------7-------7-----------------------------------------|
E|-----------------------5-------5-------------------------------------------|
  

-----------
Pre Chorus: (Fast, all down strokes)
-----------

          B                A
And I wait, I wait for you

          B               
But Im riddled with doubt

A
And I want out


--------
 Chorus:
--------
         E
I need a halo

A                      C#m
Or something to set me free

              E
I breathe the clouds in 

A            C#m
Anything for relief


--------
 Bridge:
--------

A       B            E           C#m
Pick me up cause Im out of control

A       B           E
Pick me up if you can

A       B                 E           C#m
Pick me up cause Ive got no place to go

B            A
And I need a halo


-------
 Outro:
-------

Low E        Bm                  A
Need a halo, something to set me free

Low E        Bm                  A
Need a halo, something to set me free

Low E        Bm                  A
Need a halo, something to set me free

Low E                  Bm           A
Breathe the clouds in, anything for relief


  C#                      
e|---------------------------------------------------------------------------|
B|-------2-------------------------------------------------------------------|
G|-----8---------------------------------------------------------------------|
D|---6-----------------------------------------------------------------------|
A|-4-------------------------------------------------------------------------|
E|---------------------------------------------------------------------------|


-------
 ORDER
-------
Intro  X2
Verse  X4
Pre Chorus  X1
Verse  X4
Pre Chorus  X1
Chorus  X2
Bridge  X1
Outro  X1

There you have it! Feel free to email me if you have any queries.
Enjoy.
Tap to rate this tab
 
# A B C D E F G H I J K L M N O P Q R S T U V W X Y Z