Song name
# A B C D E F G H I J K L M N O P Q R S T U V W X Y Z

Pluton Svea - Internationalen tab

Internationalen By: Pluton Svea


Lead:

E|--0-----------------------------------0-----|
B|-----3--1--------------3--1--0--------------|
G|-----------0-----2--------------2--0--------|
D|--------------2-----3-----------------------|
A|--------------------------------------------|
E|--------------------------------------------|

E|--0--0--3--1--0-----------1--0--0--------|
B|--------------------0--1-----------3--1--|
G|-----------------2-----------------------|
D|-----------------------------------------|
A|-----------------------------------------|
E|-----------------------------------------|

Verse:

    C                       F
E|--------------------------------------------------|
B|--------------------------------------------------|
G|--------------------------------------------------|
D|--5--5--5--5--5--5--5--5--------------------------|
A|--3--3--3--3--3--3--3--3--3--3--3--3--3--3--3--3--|
E|--------------------------1--1--1--1--1--1--1--1--|
       .     .     .     .     .     .     .     .

    G                       C
E|--------------------------------------------------|
B|--------------------------------------------------|
G|--------------------------------------------------|
D|--------------------------5--5--5--5--5--5--5--5--|
A|--5--5--5--5--5--5--5--5--3--3--3--3--3--3--3--3--|
E|--3--3--3--3--3--3--3--3--------------------------|
       .     .     .     .     .     .     .     .

    C                       F
E|--------------------------------------------------|
B|--------------------------------------------------|
G|--------------------------------------------------|
D|--5--5--5--5--5--5--5--5--------------------------|
A|--3--3--3--3--3--3--3--3--3--3--3--3--3--3--3--3--|
E|--------------------------1--1--1--1--1--1--1--1--|
       .     .     .     .     .     .     .     .

    G                       C
E|-----------------------------------------|
B|-----------------------------------------|
G|-----------------------------------------|
D|--------------------------5-5-5-5-5-5-5--|
A|--5--5--5--5--5--5--5--5--3-3-3-3-3-3-3--|
E|--3--3--3--3--3--3--3--3-----------------|
       .     .     .     .

Outro:

E|--0-----------------------------------0-----|
B|-----3--1--------------3--1--0--------------|
G|-----------0-----2--------------2--0--------|
D|--------------2-----3-----------------------|
A|--------------------------------------------|
E|--------------------------------------------|


E|--0--0--3--1--0-----------1--0--0--------|
B|--------------------0--1-----------3--1--|
G|-----------------2-----------------------|
D|-----------------------------------------|
A|-----------------------------------------|
E|-----------------------------------------|


E|--------------------------------------------------------|
B|--------------1--0--------------------------------------|
G|--0--------0--------2--0--------------0--0--0--2--0-----|
D|-----3--2-----------------3--3--2--0-----------------2--|
A|--------------------------------------------------------|
E|--------------------------------------------------------|


E|--------------0--0-----------------------------------------------|
B|--------------------3--1--0--1-----3--1-----1--1--0--0-----0--1--|
G|-----------0--------------------2--------0--------------2--------|
D|--2-----2--------------------------------------------------------|
A|-----3-----------------------------------------------------------|
E|-----------------------------------------------------------------| X2
Tap to rate this tab
# A B C D E F G H I J K L M N O P Q R S T U V W X Y Z