Song name
# A B C D E F G H I J K L M N O P Q R S T U V W X Y Z

Pluton Svea - Fjarde Riket tab

Fjarde Riket By: Pluton Svea

Intro/verse:

    G
E|--------------------------------------|
B|--------------------------------------|
G|--------------------------------------|
D|--------------------------------------|
A|--5--7--5--7--5--5--7--5--5--5--7--5--|
E|--3--3--3--3--3--3--3--3--3--3--3--3--|

    E
E|--------------------------------------|
B|--------------------------------------|
G|--------------------------------------|
D|--------------------------------------|
A|--2--4--2--4--2--2--4--2--2--2--4--2--|
E|--0--0--0--0--0--0--0--0--0--0--0--0--|

    C           D           G
E|--------------------------------------------------------------|
B|--------------------------------------------------------------|
G|--------------------------------------------------------------|
D|--5--7--5--5--7--7--9--7--------------------------------------|
A|--3--3--3--3--5--5--5--5--5--7--5--7--5--5--7--5--5--5--7--5--|
E|--------------------------3--3--3--3--3--3--3--3--3--3--3--3--|

Chorus:

    C           D             G     F#    E
E|-------------------------------------------|
B|-------------------------------------------|
G|-------------------------------------------|
D|--5--5--5--5--7--7----7--7-----------------|
A|--3--3--3--3--5--5----5--5--5--5--4--4--2--|
E|----------------------------3--3--2--2--0--|

    D     C           D           E
E|-------------------------------------------------|
B|-------------------------------------------------|
G|-------------------------------------------------|
D|--7--7--5--5--5--5--7--7--7--7--9--9--8-9--9--9--|
A|--5--5--3--3--3--3--5--5--5--5--7--7--6/7--7--7--|
E|-------------------------------------------------|
Tap to rate this tab
# A B C D E F G H I J K L M N O P Q R S T U V W X Y Z