Song name
# A B C D E F G H I J K L M N O P Q R S T U V W X Y Z

Pluton Svea - Under Blagul Fana tab

Artist: Pluton Svea
Låt: Under Blågul Fana

(OBS! Jag delar inte Pluton Svea's värderingar och åsikter, däremot fann jag denna
låt ganska "catchy" så jag bestämde mig för att tabba ut den ändå!)

Är inte helt säker på refrängen men experimentera lite med ackorden som jag skrivit
så ska det nog låta bra ändå.


Tuning: Standard



Intro (gitarr 1):
e-----------------------------------------------------|
B-----------------------------------------------------|
G----------------------------------5---5--7/9--9p7----|   ( x2 )  
D-----------------5----------7-5-7---7-------------9--|  
A-------7-8-7-5------5-7-5-7--------------------------|
E---5-8---------8-------------------------------------|


Spelas under Intro och Vers (gitarr 2):

     Am   F    C   G
e-----0---1----0---3---------------|
B-----1---1----1---3---------------|
G-----2---2----0---0---------------|
D-----2---3----2---0---------------|
A-----0---3----3---2---------------|
E---------1--------3---------------|



Refräng:

   C5      E5      A5
e------------------------------|
B------------------------------|
G---5--------------------------|
D---5-------2--------7---------|
A---3-------2--------7---------|
E-----------0--------5---------|

   C5      B5 C5     A5
e------------------------------|
B------------------------------|
G---5-------4--5---------------|
D---5-------4--5-----7---------|
A---3-------2--3-----7---------|
E--------------------5---------|





Vers:

Am                  F
Jag står och tittar ut
      C            G
Över landet där vi bor
    Am          F
Där förfäder offrade
   C      G
Åt Oden & Tor

Den forna tidens dagar
Vi lämnat bakom oss
Sverige mitt arv
För sverige ska jag slåss


Refräng:
C5    E5     A5
Under blågul fana
C5       B5 C5 A5
För vårt fosterland
C5    B5 C5  A5
Under blågulfana
C5
Öga för öga
E5       A5
Öand för tand
Tap to rate this tab
 
# A B C D E F G H I J K L M N O P Q R S T U V W X Y Z