Song name
# A B C D E F G H I J K L M N O P Q R S T U V W X Y Z

Pmmp - Rusketusraidat tab

                      PMMP Rusketusraidat

intro:

E|-----------------------   <----|   Play this 4 times
B|------------12-11(11~)---------|
G|-----9-11-12-------------------|
D|--9-9--------------------------|
A|-------------------------------|
E|-------------------------------|

 verse:
E|-----------------------------------------------|
B|-----------------------------------------------|
G|------------------------------------------ <---| Play this 2 times
D|-----------------------------------------------|
A|-5b6-(6)p4---4b5-(5)p4---5-5b6-(6)p4-----------|
E|----------5-----------4--------------5~--------|

Pre chorus:
E|----------------------------------------------|
B|-5b6-(6)p4---4-4b5-(5)p3---5-5b8(8)p4---------|
G|-----------5-------------4------------5~- <---| 1 time
D|----------------------------------------------|
A|----------------------------------------------|
E|----------------------------------------------|

E|-----------------13-12-(12~~)--------|
B|--------11-12-14-12-11-(11~~)--------|
G|-10-10--9--10-12-------------- <-----| 4 times
D|-9--9--------------------------------|
A|-------------------------------------|
E|-------------------------------------|

solo:

E|-18t14p10-18t14p10-18t14p10-18t14p10--------|
B|-------------------------------------- <----| 4 times
G|--------------------------------------------|
D|--------------------------------------------|
A|--------------------------------------------|
E|--------------------------------------------|
               |________________________| <--- 8 times these
E|-12-9--------|------------------------|
B|-----11-9----|------------------------|
G|---------12-9|------9-13p9-----9-13p9-|
D|-------------|-11b13------11b13-------|
A|-------------|------------------------|

E|---------------------------------------------|
B|---------------------------------------------|
G|---------------------------------11~------11-|
D|--13-11------------------------13----12-13---| Continues
A|-------12-11--------------12-11--------------|
E|------------13-12-(12~)-13-------------------|

E|---------------------------------------------|
B|-------------------------------------   <----| 2 times
G|-17t11b13-17t11b13-17t11b13-17t11b13---------|
D|---------------------------------------------|
A|---------------------------------------------|
E|---------------------------------------------|

E|---------------------------------|
B|---------------------------------|
G|-12-11-10-9-------------9-10-10~-|
D|-----------11-10-9-10-11------9~-|
A|---------------------------------|
E|---------------------------------|

after the solo

E|---------------------------------------------|
B|---------------------------------------------|
G|-8-8-8-7-6--6-6-6-7----8-8-8-7-6-6-7--- <----| 2 times
D|-6-6-6-5-4--4-4-4-5-6--6-6-6-5-4-4-5-6-------|
A|--------------------4----------------4-------|
E|---------------------------------------------|

then once pre-chorus and chorus twice and you got the song =)
Tap to rate this tab
# A B C D E F G H I J K L M N O P Q R S T U V W X Y Z