Song name
# A B C D E F G H I J K L M N O P Q R S T U V W X Y Z

Pmmp - Pikkuveli tab

                            PMMP - Pikkuveli
  REMEMBER TO USE THE HEVIEST AMP WITH HIGHEST BASS AND BIGGEST GAIN!!!
 intro:
E|--17-p-12-------------|
B|--------12------------|
G|---------12-----------|
D|----------12-------2--|
A|-----------12\-----2--|
E|-------------------0--|

 verse :
E|------------------------------------------|
B|------------------------------------------|
G|------------------------------------------|
D|------------------------------------------|
A|--10p7-9p7-8p7-10p7-9p7-8p7-10p7-9p7-8p7--|
E|------------------------------------------|

Pre-chorus

E|--------------------------------------|
B|--------------------------------------|
G|--------------------------------------|
D|--------------------------------------|
A|-8p5-7p5-6p5-8p5-7p5-6p5-7p4-6p4-5p4--|
E|--------------------------------------|

Chorus

E-------------------|
B-------------------|
G-------------------|
D--8\7-----5/7------|               There you have pmmp pikkuveli
A--6\5-----3/5------|
E-----0-0-0---0-0-0-|
Tap to rate this tab
# A B C D E F G H I J K L M N O P Q R S T U V W X Y Z