Song name
# A B C D E F G H I J K L M N O P Q R S T U V W X Y Z

Pms - Im Gonna Fail tab

Help us improve GuitareTab! Take a short survey!
-------------------------------------------------------------------------------
			    PMS - Im Gonna Fail
-------------------------------------------------------------------------------

By: Liam Dunning

Intro/Chorus
e|---------------------------------------------------------------------------
B|---------------------------------------------------------------------------
G|---9-9-9---10-10-10---5-5-5---7-7-7----------------------------------------
D|---9-9-9---10-10-10---5-5-5---7-7-7---------------------------------------- Repeat four times
A|---7-7-7---8--8--8----3-3-3---5-5-5----------------------------------------
E|---------------------------------------------------------------------------

Verse: Palm mute intro

Bridge:
e|---------------------------------------------------------------------------
B|---------------------------------------------------------------------------
G|-----4-x-x-x-x-x--/--3-/---4-x-x-x-x-x-------------------------------------
D|-----4-x-x-x-x-x--/--3-/---4-x-x-x-x-x-------------------------------------
A|-----2-x-x-x-x-x--/--1-/---2-x-x-x-x-x-------------------------------------
E|---------------------------------------------------------------------------

After bridge back into chorus

Structure:	Intro 	x4
		Verse 	x2
		Chorus 	x3
		Verse 	x2
		Chorus 	x3
		Bridge 	x2
		Chorus 	x4
Related for Im Gonna Fail tab