Song name
# A B C D E F G H I J K L M N O P Q R S T U V W X Y Z

Pms - Foward tab

-------------------------------------------------------------------------------
			     PMS - Foward
-------------------------------------------------------------------------------

By: Craig Hall

Great song by PMS. Best song off "Second to zero" album.

Intro
e|---------------------------------------------------------------------------
B|---------------------------------------------------------------------------
G|---------------------------------------------------------------------------  REPEAT 
D|--------2p3p2-------2p3p2-------2p3p2--------3-2---------------------------   TWICE
A|---3-3----------------------0-0--------------------------------------------
E|---------------3-3----------------------1-1--------------------------------

Verse
e|---------------------------------------------------------------------------
B|---------------------------------------------------------------------------
G|---5-x-x-------------------------------------------------------------------	REPEAT 
D|---5-x-x--5-x-x---7-x-x---3-x-x--------------------------------------------	 TWICE
A|---3-x-x--5-x-x---7-x-x---3-x-x--------------------------------------------
E|----------3-x-x---5-x-x---1-x-x--------------------------------------------

Chorus:  Verse without muting

Not sure on rest of song Email me if anyone knows the rest of the song
nakanata@homtail.com
Tap to rate this tab
# A B C D E F G H I J K L M N O P Q R S T U V W X Y Z