Song name
# A B C D E F G H I J K L M N O P Q R S T U V W X Y Z

Pms - Oh Daisy tab

-------------------------------------------------------------------------------
			    Oh Daisy - PMS
-------------------------------------------------------------------------------

By: Stuart Dunn

Their slowest song but still a good one.
"Second to zero" is a must!!!

Intro played on accoustic
e|---------------------------------------------------------------------------
B|---------------------------------------------------------------------------
G|---------------------------------------------------------------------------
D|---------------------------------------------------------------------------
A|---------------5-444-------------------------------------------------------
E|-----0-2-222---------------------------------------------------------------

After second time elecric comes in:
e|---------------------------------------------------------------------------
B|---------------------------------------------------------------------------
G|-------------7-x--6-x-x----------------------------------------------------
D|----4-4-x-x--7-x--6-x-x----------------------------------------------------
A|----4-4-x-x--5-x--4-x-x----------------------------------------------------
E|----2-2-x-x----------------------------------------------------------------

Electric plays muted every so often.

Cant figure out chorus please email me with any corrections:

animal_stu@hotmail.com
Tap to rate this tab
# A B C D E F G H I J K L M N O P Q R S T U V W X Y Z