Song name
# A B C D E F G H I J K L M N O P Q R S T U V W X Y Z

Pmtoday - People Are Machines tab

pmtoday
people are machines
in medias res

here are the main riffs of the song.

this isn't the exact amount of notes, but you can figure that out

e|------------------------------------|
B|------------------------------------|
G|------------------------------------|
D|------------------------------------|
A|------------------------------------|
D|-7777-5555-3333-7777-5555-3333------|

e|-----------------------------------------------------|
B|-----------------------------------------------------|
G|-----------------------------------------------------|
D|-----------------------------------------------------|
A|-----------------------------------------------------|
D|-7777-10101010-555-77-3333-7777-10101010-555-77-3333-|

then play it palm muted, listen for the pattern

e|---------------------------------------------------------|
B|---------------------------------------------------------|
G|---------------------------------------------------------|
D|---------------------------------------------------------|
A|-------0-3---0-3---/5-3-5-7-5-3-2--------0h2h3-2---5-3-2-|
D|-2--2------2-----2----------------5-2-5----------5-------|

e|---------------------------------------------------|
B|---------------------------------------------------|
G|---------------------------------------------------|
D|---------------------------------------------------|
A|-0-3---0-3---/5-3-5-7-5-3-2--------0h2h3-2---5-3-2-|
D|-----2-----2----------------5-2-5----------5-------|

e|-----------------|
B|-----------------|
G|-----------------|
D|-----------------| this part leads back into the intro
A|-----2---3\2-----|
D|-3h5---5-----5/7-| 
         .

e|---------|
B|---------|
G|---------|
D|---------|
A|-----3---|
D|-3-5---2-|

this is where it gets interesting

"I'm a machine.."
e|---------------------------------------------------------------|
B|---------------------------------------------------------------|
G|---------------------------------------------------------------|
D|---------2p0-----------5/7-----10-------2p0-----------9-----10-|
A|-0h2h3p0-----3\2p0----------------0h2h3-----3\2p0--------------|
D|-------------------3/5-----5/7--------------------3/5---5/7----|

e|---------------------------------------------------------------|
B|---------------------------------------------------------------|
G|---------------------------------------------------------------|
D|---------2p0-----------5/7-----10-------2p0-----------9-----10-|
A|-0h2h3p0-----3\2p0----------------0h2h3-----3\2p0--------------|
D|-------------------3/5-----5/7--------------------3/5---5/7----|

e|-------------------------------|
B|-------------------------------|
G|-------------------------------|
D|---10-----9-----7-----5--------|
A|--------------------------2-2--|
D|-7----7\5---5\4---4\3---3-2-2--|

repeat as necessary

*******************************

| h hammer-on
| p pull-off
| . palm mute
| / slide up
| \ slide down

*******************************
Tap to rate this tab
# A B C D E F G H I J K L M N O P Q R S T U V W X Y Z