Song name
# A B C D E F G H I J K L M N O P Q R S T U V W X Y Z

Pocket Full Of Rocks - Alive tab

***ATTENTION*** THERE ARE CHORDS HERE TOO, NOT JUST TABS.  LOOK LOWER :-)

-------------------------------------------------------------------------------
			     Alive - Pocket Full Of Rocks
-------------------------------------------------------------------------------
Tabbed by:  CHAD STRADWICK
Email:  bigcdawg17@hotmail.com

Tuning:  Standard (EADGBe)  

Also this is my first tab, so please let me know if anything is wrong.



Intro (X2), Musical Break Between Chorus and 2nd Verse (X2) and Outro (X4)

e|-------------------------------------|
B|-------------------------------------|
G|-------------------------------------|
D|-------------------------------------|
A|-------------------------------------|
E|-3-3-3-3-2-2-2-2/7-7-7-7-7-7-7-7-7\3-|

All Verses:

e|-------------------------------------------------------------------------|
B|-------------------------------------------------------------------------|
G|-------------------------------------------------------------------------|
D|-------------------------------------------------------------------------|
A|-------------------------------------------------------------------------|
E|-3-3-3-3-2-2-2-2/7-7-7-7-7-7-7-7-7\3-3-3-3-3-2-2-2-2/7-7-7-7-7-7-7-7-7\3-|

e|-------------------------------------------------------------------|
B|-------------------------------------------------------------------|
G|-------------------------------------------------------------------|
D|-------------------------------------------------------------------|
A|-------------------------------------------------------------------|
E|-3-3-3-3-2-2-2-2/7-7-7-7-7-7-7-7-7-5-5-5-5-5-5-5-5-5-5-5-5-5-5-5-5-|

3rd Chorus, First Time Through (Right after the Bridge)

e|-----------------------------------------------------------------|
B|-----------------------------------------------------------------|
G|-----------------------------------------------------------------|
D|-----------------0-0-0-0-0-0-0-0---------------------------------|
A|-------------------------------------------------2-2-2-2-2-2-2-2-|
E|-3-3-3-3-3-3-3-3-----------------2-2-2-2-2-2-2-2-----------------|

e|-----------------------------------------------------------------|
B|-----------------------------------------------------------------|
G|-----------------------------------------------------------------|
D|-0-0-0-2-2-4-4-------------0-0-2-2-0-0---------------------------|
A|---------------0-0-0-0-0-0-------------4-4-2-2-0-0-0-0-0-0-0-0-0-|
E|-----------------------------------------------------------------|

Verse 1:

There was a time I was dead inside. 
You'd call my name and I'd try to hide. 
My heart was dark and so full of shame, 
Full of shame. 

But like the dawning of a brand new day 
Your love has chased my shame away. 
How amazing, now to hear You singing over me! 
Over me! 

Chorus 1:

          G
Loudly, I sing 
          D
Loudly, I live 
            F#            Bm
Giving You all I have to give,
                G                      D              A
Until the world knows the Love that's made me so alive 
 A
I'm alive, I'm alive yeah! 

(Musical Break)

Verse 2:

Well, every day I find Your mercy new. 
And every moment that I spend with You 
I am overwhelmed by Grace I can't keep to myself! 
To myself! 

Chorus 2:

          G
Loudly, I sing 
          D
Loudly, I live 
            F#            Bm
Giving You all I have to give,
                G                      D              A
Until the world knows the Love that's made me so alive 
 A
I'm alive! 
          G 
Loudly, I sing 
          D
Loudly, I live 
            F#            Bm
Giving You all I have to give,
                G                      D              A
Until the world knows the Love that's made me so alive 
 A
I'm alive!

Bridge:

          Bm                F#
Out of my sorrow, out of my night, 
                G     A  Bm  E          
You called me into Glorious Light. 
                   Bm               F#            
Where all of the lost, lonely and broken
            E 
Find Your Light. 
            E
Shine Your Light. 

Chorus 3:

Loudly, I sing 
Loudly, I live 
Giving You all I have to give, 
Until the world knows the Love that's made me so alive 
I'm alive!

          G
Loudly, I sing 
          D
Loudly, I live 
            F#            Bm
Giving You all I have to give, 
                G                      D              A
Until the world knows the Love that's made me so alive 
 A
I'm alive, I'm alive! Yeahhhhhhhhhhhhhhhhhh!

Outro:

I'm alive, I'm alive, yeah!



Enjoy and God Bless :-)


| /  slide up
| \  slide down
| h  hammer-on
| p  pull-off
| ~  vibrato
| +  harmonic
| x  Mute note
Tap to rate this tab
 
# A B C D E F G H I J K L M N O P Q R S T U V W X Y Z