Guitaretab - guitar tabs
Song name
# A B C D E F G H I J K L M N O P Q R S T U V W X Y Z

Poco - Keep On Tryin tab

                         POCO - Keep on Tryin'
                         By Timothy B. Schmidt



Standard tuning
Capo second fret
Listen to song for strum pattern
Only chord changes are noted
Fret numbers are in relationship to nut


INTRO: Play Twice

E||----------------------------------------------------------------------------|
B||----4-----------------------------------------------------------------------|
G||----4--------------------------3--------------------------------------------|
D||----4--------------------------4--------------------------------------------|
A||-------------------------------4--------------------------------------------|
E||----------------------------------------------------------------------------|

   1. I"ve been thinkin''bout    all the time you told me
   2. I've been drinkin' now     just a little too much
   3. I"ve been thinkin''bout    all the time you held me

E||----------------------------------------------------------------------------|
B||----4-----------------------------------------------------------------------|
G||----4--------------------------3--------------------------------------------|
D||----4--------------------------4--------------------------------------------|
A||-------------------------------4--------------------------------------------|
E||----------------------------------------------------------------------------|

    YOU're so full of doubt      you just can't let it be but I know
    And I don't know how         I can get in touch with you
    I never heard you shout      the flow of energy was so fine

E||-----------------------------------------------------------4----------------|
B||----4------------------------------------------------------4----------------|
G||----4--------------------------3---------------------------4----------------|
D||----4--------------------------4---------------------------6----------------|
A||-------------------------------4---------------------------6----------------|
E||-----------------------------------------------------------4----------------|

    If you keep on comin' back for more and keep on tryin' I'll keep on tryin'
    Now there's only one thing for me too do  is keep on tryin',to get home to you (REFRAIN)
    Now I think I'll lay it on the line and keep on tryin' to get home to you (REFRAIN & END)
 
E||-5----------------3-------------4----3-------------5------------------------|
B||-4----------------4-------------4----4-------------4-----4------------------|
G||-5----------------4-------------4----4-------------5-----4-------------3----|
D||--------------------------------6------------------------4-------------4----|
A||--------------------------------6--------------------------------------4----|
E||--------------------------------4-------------------------------------------|


REFRAIN:
    
    And I feel so satified when  I can see you smile  I
[ Tab from: http://www.guitaretab.com/p/poco/107928.html ]
E||-4------------------------3-------------------------------------------------|
B||-4------------------------4-----------4-------------------------------------|
G||-4------3-----------------3-----------4-------------------------------------|
D||-6------4-----------------------------4-------------------------------------|
A||-6------4-------------------------------------------------------------------|
E||-4--------------------------------------------------------------------------|

    I want to confide in all that is true so I

E||-4------------------------3-------------------------------------------------|
B||-4------------------------4-------------------------------------------------|
G||-4------3-----------------3-----------3-------------------------------------|
D||-6------4-----------------------------4-------------------------------------|
A||-6------4-----------------------------4-------------------------------------|
E||-4--------------------------------------------------------------------------|

    Keep on tryin' I'm though with lyin'
 
E||----------------------4-----------------------------------------------------|
B||-4--------------------3-----------4-----------------------------------------|
G||-4---------3----------4-----------4-----------------------------------------|
D||-4---------4----------------------4-----------------------------------------|
A||-----------4----------------------------------------------------------------|
E||----------------------------------------------------------------------------|

    Just like the sun above I'll keep shinin' through Oh yes I'll
E||---------------4----------3-------------------------------------------------|
B||-4-------------4----------4-------------------------------------------------|
G||-4-------------4----------3----------------3--------------------------------|
D||-4-------------6---------------------------4--------------------------------|
A||---------------6---------------------------4--------------------------------|
E||---------------4------------------------------------------------------------|


    Keep on tryin' I'm tired of cryin'
 
E||----------------------4-----------------------------------------------------|
B||-4--------------------3-----------4-----------------------------------------|
G||-4---------3----------4-----------4-----------------------------------------|
D||-4---------4----------------------4-----------------------------------------|
A||-----------4----------------------------------------------------------------|
E||----------------------------------------------------------------------------|

    I got to find a way to get on home to you       
                                                   END:
E||--------------------------------4-------------||----------------------------|
B||-4------------------------------3------4------||--4-------------------------|
G||-4-----------------------3------4------4------||3-4-------------------------|
D||-4-----------------------4-------------4------||4-4-------------------------|
A||-------------------------4--------------------||4---------------------------|
E||----------------------------------------------||----------------------------|

Return to verse 3



Related for Keep On Tryin tab
Advertisement will be closed in 10 seconds