Song name
# A B C D E F G H I J K L M N O P Q R S T U V W X Y Z

Poco - Crazy Love tab

t. See http://www.olga.net/faq/ for more information.                     #
#-----------------------------------------------------------------------------#

Date: Wed, 29 Sep 1999 20:19:22 -0400
From: "Richard J. Smith Jr." 
Subject: p/poco/crazy_love.tab


  POCO- Crazy Love

        (capo on third fret)
         h=hammer on
         p=pull off

Verse 1

  INTRO

      Fmaj7            C
e|-------------|---------------|
B|---1-----1---|-----------0h1-|
G|-----0h2-----|-----------0---|
D|-3---------0-|-0h2p0-----0h2-|
A|-------------|--------3------|
E|-------------|---------------|

         Fmaj7            G         Fmaj7           C

e|----0---0---0---0-|----3------|----0-----|----0---0---------|
B|--1---1---1---1---|--3---3-3--|--1---1-1-|--1---1---1-1-----|
G|---2---2---2---2--|---4---4---|---2---2--|---0---0---0----0-|
D|-3---3---3---3----|-5---5-----|-3---3----|-2---2---2---0h2--|
A|------------------|-----------|----------|------------------|
E|------------------|-----------|----------|------------------|



          C                 Fmaj7            G       Fmaj7          C

e|----0---0---------|----0---0---0---0-|----3-----|----0-----|--0---------|
B|--1---1---1-1-----|--1---1---1---1---|--3---3-3-|--1---1-1-|----1-----1-|
G|---0---0---0----0-|---2---2---2---2--|---4---4--|---2---2--|---0-----0--|
D|-2---2---2---0h2--|-3---3---3---3----|-5---5----|-3---3----|-----0h2----|
A|------------------|------------------|----------|----------|-3----------|
E|------------------|------------------|----------|----------|------------|



         Fmaj7            G         Fmaj7            C

e|----0---0---0---0-|----3------|----0------|----0---0---------|
B|--1---1---1---1---|--3---3-3--|--1---1-1--|--1---1---1-1-----|
G|---2---2---2---2--|---4---4---|---2---2---|---0---0---0----0-|
D|-3---3---3---3----|-5---5-----|-3---3-----|-2---2---2---0h2--|
A|------------------|-----------|-----------|------------------|
E|------------------|-----------|-----------|------------------|


          C                Fmaj7            G         Fmaj7         C

e|----0---0---------|----0---0---0---0-|----3-----|----0-----|--0---------|
B|--1---1---1-1-----|--1---1---1---1---|--3---3-3-|--1---1-1-|----1-----1-|
G|---0---0---0----0-|---2---2---2---2--|---4---4--|---2---2--|---0-----0--|
D|-2---2---2---0h2--|-3---3---3---3----|-5---5----|-3---3----|-----0h2----|
A|------------------|------------------|----------|----------|-3----------|
E|------------------|------------------|----------|----------|------------|


  CHORUS

(It happens all the)

      Fmaj7          G             C           C

e|-----0------|-----3------|-----0------|-----0------|
B|---1---1-1--|---3---3-3--|---1---1-1--|---1---1-1--|
G|----2---2---|----4---4---|----0---0---|----0---0---|
D|--3---3-----|--5---5-----|--2---2-----|--2---2-----|
A|------------|------------|------------|------------|
E|------------|------------|------------|------------|



      Fmaj7          G            C           C

e|-----0------|-----3------|-----0------|---0--------|
B|---1---1-1--|---3---3-3--|---1---1-1--|-----1------|
G|----2---2---|----4---4---|----0---0---|----0-------|
D|--3---3-----|--5---5-----|--2---2-----|------2-0---|
A|------------|------------|------------|--3------3--|
E|------------|------------|------------|------------|



      Fmaj7          G          Fmaj7         C

e|-----0------|-----3------|-----0------|-----0------|
B|---1---1-1--|---3---3-3--|---1---1-1--|---1---1-1--|
G|----2---2---|----4---4---|----2---2---|----0---0---|
D|--3---3-----|--5---5-----|--3---3-----|--2---2-----|
A|------------|------------|------------|------------|
E|------------|------------|------------|------------|
      Ooo         Ooo         



     Fmaj7          G            Fmaj7             C

e|-----0------|-----3------|---------------|-----------------|
B|---1---1-1--|---3---3-3--|----1-----1----|------------0h1--|
G|----2---2---|----4---4---|------0h2------|------------0----|
D|--3---3-----|--5---5-----|--3---------0--|--0h2p0-----0h2--|
A|------------|------------|---------------|---------3-------|
E|------------|------------|---------------|-----------------|



Verse 3

Chorus

Verse 4:

Chorus
                    strum Fmaj7 sustain
Tap to rate this tab
# A B C D E F G H I J K L M N O P Q R S T U V W X Y Z