Song name
# A B C D E F G H I J K L M N O P Q R S T U V W X Y Z

Pod - It Cant Rain Everyday tab

===============================================================================
                   P.O.D - It can't Rain Everyday
===============================================================================
Tabbed by: Mooby29
Email: limpbizkitvol3@hotmail.com
Tuning: DADGBe (Drop D)
Comment: It's my first tab, feel free to comment if you like it
===============================================================================

A- Marcos' Solo/intro:

e|---5-----------------------------------------------------------------------|
B|---5--------5-5b----6------------------------------5-----------------------|
G|---5----5-7---------3---5p3h5p3-2-3-5-3-2-3-2-3----5---5h7-5h7-5h7-5h7b----|
D|---5--7-------------5----------------------------0---7---------------------|
A|-5-------------------------------------------------5-----------------------|
D|------------------5--------------------------------------------------------|

e|---------------------------------------------------------------------------|
B|---------------------------------------------------------------------------|
G|---3-5p3h5p3\2h3/5\3------2--2-0-2-2b------2---2-------2---2---------------|
D|---5--------------------0--------------------------------------------------|
A|----------------------1----------------1-1---1---1-0-0---0-----------------|
D|-5------------------------------------------------------------0------------|


B- The verse:

e|---------------------------------------------------------------------------|
B|-------------------------------------------------------------------3-------|
G|-----7-----7---7h8------5-----8\7-5--------5-----5---------3-----5---5-----|
D|-5-5---5-5---5----------------------7----7-----7-----7---5---5-4-----------|
A|--------------------3-3---3-3----------8-----8-----8---6-------------------|
D|---------------------------------------------------------------------------|


C- The chorus:

Guitar 1 (electric)
e|-------------------------3P1----------------3----------------8P6-----------|
B|-------4---------------1-----1------------3---3------------6-----6---------|
G|-----3---3-----------2---------2---2----3-------3---3----7---------7---(8)*|
D|---5-------5---5---3-------------3----5-----------5----8-------------8-(5)*|
A|-6-----------6---------------------------------------------------------(6)*|
D|---------------------------------------------------------------------------|

*Play that chord only at the end of each chorus

Guitar 2 (acoustic)*
e|---------------------------------------------------------------------------|
B|44444444-66666666-88888888-1111111111111111--------------------------------|
G|33333333-55555555-77777777-1010101010101010--------------------------------|
D|11111111-33333333-55555555-888888888---------------------------------------|
A|---------------------------------------------------------------------------|
D|---------------------------------------------------------------------------|

*Backs the above part, not played during the first chorus


D- The lead part:

Guitar 1 (lead)
e|---------------------------------------(3)*--------------------------------|
B|--------------6------------------------(3)*-----(---------)**--------------|
G|---------5-7---7--555-3-2-----5--------(3)*-----(--------5)**--------------|
D|-555-7-8------------------3/7---5---------------(555-7-8--)**--------------|
A|---------------------------------------------------------------------------|
D|---------------------------------------------------------------------------|

*Play that chord only the first and last times you play that lead
**Play those extra notes the time before the bridge comes

Guitar 2 (acoustic)*
e|-------------------333333333333333-----------------------------------------|
B|-44444444-66666666-333333333333333--------Repeat...------------------------| 
G|-33333333-55555555-333333333333333-----------------------------------------|
D|-11111111-33333333---------------------------------------------------------|
A|---------------------------------------------------------------------------|
D|---------------------------------------------------------------------------|

*Backs the above part


E- The bridge:

e|---------------------------------------------------------------------------|
B|---3-----3/5/7----7-----7/8/9----5-----5---5---5-----5/7/8-----------------|
G|-1---1-1--------5---5-5--------3---3-3---3---3---3-3--------(5)*-----------|
D|---------------------------------------------------------------------------|
A|---------------------------------------------------------------------------|
D|---------------------------------------------------------------------------|

*Add that note the second time you play this part

===============================================================================

|Play those parts in the following order:
|A
|B 2 times
|C 2 times
|D 1 time
|B 2 times
|C 2 times
|D 2 times
|E 2 times
|B 3 times
|C 2 times
|D 4 times

===============================================================================

| /  slide up
| \  slide down
| h  hammer-on
| p  pull-off
| ~  vibrato
| +  harmonic
| x  Mute note
| b  Bend note
===============================================================================
Tap to rate this tab
 
# A B C D E F G H I J K L M N O P Q R S T U V W X Y Z