Guitaretab - guitar tabs
Song name
# A B C D E F G H I J K L M N O P Q R S T U V W X Y Z

Pod - Ill Be Ready tab

===============================================================================
                   P.O.D - I'll Be Ready
===============================================================================
Tabbed by: Mooby29
Email: limpbizkitvol3@hotmail.com
Tuning: DADGBe (Drop D)
Comment: Great POD song, really funny to play.
===============================================================================

A- Verse

e|---------------------------------------------------------------------------|
B|-------------------------5~*-------------------------1~--------------------|
G|------------5--------------------------5-----------------------------------|
D|----------7---7--------3-------------7---7--------3------------------------|
A|--5-7h-8h-------8-7--5-------5-7h-8h-------8-7--5--------------------------|
D|---------------------------------------------------------------------------|

*Bend that note the second time during each verse.

B- Pre chorus

e|--10--10---3--5--8---------------------------------------------------------|
B|--10--10---3--5----5----6--10----------------------------------------------|
G|--10--10---3--5------7--5--9-----------------------------------------------|
D|-----------5--7---------3--7-----------------------------------------------|
A|------------------------5--8-----------------------------------------------|
D|---------------------------------------------------------------------------|

C- Chorus

e|------8--------------------------------------------------------------------|
B|----5---5---5-------10--------------------------55555555~------------------|
G|--7-------7-------7----7---7-------5---------------------------------------|
D|----------------8--------8-------7---7---7----7----------------------------|
A|-------------------------------5-------5----5------------------------------|
D|---------------------------------------------------------------------------|

D- End of chorus

e|--10--10-121212121212-10--10-121212121212121212121212-10--10-121212121212--|
B|--10--10-121212121212-10--10-121212121212121212121212-10--10-121212121212--|
G|--10--10-121212121212-10--10-121212121212121212121212-10--10-121212121212--|
D|---------------------------------------------------------------------------|
A|---------------------------------------------------------------------------|
D|---------------------------------------------------------------------------|
[ Tab from: http://www.guitaretab.com/p/pod/108791.html ]
e|--10--10-121212121212121212121212--10--------------------------------------|
B|--10--10-121212121212121212121212--10--------------------------------------|
G|--10--10-121212121212121212121212--10--------------------------------------|
D|---------------------------------------------------------------------------|
A|---------------------------------------------------------------------------|
D|---------------------------------------------------------------------------|

E- Solo

e|-----------13-12-10-12~--13-12-10-12~--12-13-14b16~-14b16~--13h15p12-13----|
B|--------11--------------------------------------------------------------15-|
G|--10~--10------------------------------------------------------------------|
D|---------------------------------------------------------------------------|
A|---------------------------------------------------------------------------|
D|---------------------------------------------------------------------------|

e|--12-13----12-13-----------------------------------------------------------|
B|--------15-------15~------------------------------888888-6h8p5~-6~--5-6---5|
G|----------------------101010--101010--12/1414-12------------------------7--|
D|---------------------------------------------------------------------------|
A|----------------------8-8-8---8-8-8---10/1212-10---------------------------|
D|---------------------------------------------------------------------------|

e|---------------------------------------------------------------------------|
B|--------5-----5~-----------------------------------------------------------|
G|--5-7-7---5-7-----7-5-2----------------------------------------------------|
D|---------------------------------------------------------------------------|
A|---------------------------------------------------------------------------|
D|---------------------------------------------------------------------------|

F- Outro

e|--3--------5---------------------------------------------------------------|
B|--3-Many---6-Many----------------------------------------------------------|
G|--3-Times--7-Times---------------------------------------------------------|
D|--5--------8---------------------------------------------------------------|
A|---------------------------------------------------------------------------|
D|---------------------------------------------------------------------------|


===============================================================================

|Play those parts in the following order:
|A 2 times
|B 1 time
|C 2 times
|D 1 time
|A 2 times
|B 1 time
|C 2 times
|D 1 time
|E 1 time
|C 3 times
|D 1 time
|F 1 time


===============================================================================

| /  slide up
| \  slide down
| h  hammer-on
| p  pull-off
| ~  vibrato
| +  harmonic
| x  Mute note
| b  Bend note
=============================================================================== 
Related for Ill Be Ready tab
Advertisement will be closed in 10 seconds