Song name
# A B C D E F G H I J K L M N O P Q R S T U V W X Y Z

Pod - Rise Against tab

Help us improve GuitareTab! Take a short survey!
Song: Rise Against
Band: P.O.D.
Tuning: Standard


Here are the lead parts to this beautiful song.  I couldn't bothered tabbing the verse 
(palm muted part) cause the lead is the cooles tbit, but hope this is a start for anyone 
who wants to try.  I also didn't tab the solo cause you need some CRAZY effects.  Enjoy.


Lead Intro/Bridge

e|------2--5---2h5p2------------2--5---2h5p2----|--------2--5---2h5p2------------2--5---2h5p2----|
B|0--3-----------------3--0--3-----------------3|--0--3-----------------3--0--3-----------------3|
G|----------------------------------------------|------------------------------------------------|
D|----------------------------------------------|------------------------------------------------|
A|----------------------------------------------|------------------------------------------------|
E|----------------------------------------------|------------------------------------------------|

e|---------2---0h2p0---------------2---0h2p0----|-----------2---0h2p0---------------2---0h2p0----|
B|---2--3--------------2-----2--3--------------2|-----2--3--------------2-----2--3--------------2|
G|0-----------------------0---------------------|--0-----------------------0---------------------|
D|----------------------------------------------|------------------------------------------------|
A|----------------------------------------------|------------------------------------------------|
E|----------------------------------------------|------------------------------------------------|


Lead Chorus

e|-10--9--------------9--9--9--9--9--9--9--9--9--9|--9--7------------7--7--7--7--9--9--9-10-10-10|
B|-------10---------------------------------------|--------8-------------------------------------|
G|----------11--~--~------------------------------|-----------9--~~------------------------------|
D|------------------------------------------------|----------------------------------------------|
A|------------------------------------------------|----------------------------------------------|
E|------------------------------------------------|----------------------------------------------
Related for Rise Against tab